Oops, an error
Loading. Please wait.

Demons Gate tab

version 2
version 2

Whole song

1,231 views 6 this week
no commentswrite comment
1 2 3 4 5
2 more votes to show rating
add to favorites
×
Save as Personal and add changes to this tab that will be seen only by you. Learn more ›
×
You can save this tab as Personal to edit and correct it or add notes. All changes will be seen only by you. Learn more »
launch autoscroll
font size
0
reset
how to read this tab
guitar tuner
edit
Autoscroll
slow
fast
+/-
esc
set tempo
stop
----------------------------------------------------------------------------
Song: Demon's Gate
Band: Candlemass
Album: Lucifer Rising
Tabbed by: TrollFaceJesus
E-mail: trollfacejesus@gmail.com


Hey guys, this is my tab for this song, and I think it sounds pretty decent. 
Just to clarify, this is NOT the tab for Candlemass' original version of the
song, but for their remake of the song, with vocalist Robert Lowe from their 
Lucifer Rising album (which is in C#, not Eb.) Hopefully you guys find this 
tab helpful, and if you have any questions, please feel free to ask them! :D


Tuning: C#


Riff 1
|------------------------------------------------------------------|
|------------------------------------------------------------------|
|-4-----4-5---5---8---8---11---11-10---10-9-----9-8---8---7--------| x1
|-4-----4-5---5---8---8---11---11-10---10-9-----9-8---8---7--------|
|-2-----2-3---3---6---6---9----9--8----8--7-----7-6---6---5------3-|
|-------------------------------------------------------------1----|


Riff 2
|------------------------------------------------------------------|
|------------------------------------------------------------------|
|-----------------------------------------------------2---1h2p1----| x4
|-------------------------------------2-2-2---3---2-------------3--|
|-2---2-2-2-----------3---2-------2--------------------------------|
|-0-----------2---1-----------3b--0--------------------------------|

 
Riff 3
|-----------|
|-----------|
|-----------| x1
|---------2-|
|---------2-|
|-0-0-0-0-0-|
  . . . .


Riff 4
|------------------------------------------|
|------------------------------------------|
|-9----9-------9--10--9-----------9--10--7-| x1
|-9----9-------9--10--9-----------9--10--7-|
|-7----7-------7--8---7-----------7--8---5-|
|(0)---------------------------------------|


Riff 5
|----------------------------------------------------------------|
|----------------------------------------------------------------|
|----------------------------------------------------------------| x1
|----------------------------------------------------------------|
|-----8---7---5-5-7---5-5-7---8-------8-8-7---5-5-7---5---7---8--|
|-0-------------------------------0------------------------------|


Riff 4 x 1

Riff 5 x 1

Riff 2 x 2

Riff 3 x 1

Riff 4 x 1

Riff 5 x 1

Riff 4 x 1

Riff 5 x 1

Riff 1 x 1

Riff 2 x 2

Riff 3 x 1


Bass Break
|---------------------------------------------------|
|---------------------------------------------------| x2
|---------------------------------0-----------------|
|-0---------------1-------------------------------0-|


Riff 6
|---------------------------------------------------|
|---------------------------------------------------|
|---------------------------------2-----------------| x2
|-2---------------3---------------2---------------2-|
|-2---------------3---------------0---------------2-|
|-0---------------1-------------------------------0-|


Riff 7
|--------------------------------------------------------------------|
|--------------------------------------------------------------------|
|--------------------------------------------------------------------| x2
|-2----------------3----------------7----------------2---------------|
|-2----------------3----------------7----------------2---------------|
|-0--000000000000--1--111111111111--5--555555555555--0--000000000000-|
     ............     ............     ............     ............


Riff 8 (Guitar 1)
|-------------------------------------------------------------------|
|-------------------------------------------------------------------|
|-------------------------------------------------------------------| x4
|-1-------1-2-1-------1-2-4-5-7-9-7-----7-7-9-7-------5tr7--4--4tr5-|
|-------------------------------------------------------------------|
|-------------------------------------------------------------------|

Riff 8 (Guitar 2)
|-------------------------------------------------------------------|
|-------------------------------------------------------------------|
|-------------------------------------------------------------------| x4
|-------------------------1-2-4-5-4-----4-4-5-4-------2tr5--2--1tr2-|
|-2-------2-3-2-------2-3-------------------------------------------|
|-------------------------------------------------------------------|


Riff 9
|--------------------------------------------------------------|
|--------------------------------------------------------------|
|-4-------4-5-----4-------4-------4-------4-5-----9---8------5-| x4
|-4-------4-5-----4-------4-4-----4-------4-5-----9---8------5-|
|-2-------2-3-----2-------2-4-----2-------2-3-----7---6------3-|
|---------------------------2----------------------------------|


Riff 10a
|-----------------------------|
|-----------------------------|
|-----------------------------| x7
|-----------------------------|
|-----------------------------|
|-2-------2-3-----7---6-----3-|


Riff 10b
|-------------|
|-------------|
|-------------| x1
|-------------|
|-------------|
|-2-------2-3-|


Riff 1 x 1

Riff 2 x 2

Riff 3 x 1

Riff 4 x 1

Riff 5 x 1

Riff 4 x 1

Riff 5 x 1

Riff 1 x 1

Riff 2 x 6

After some little solos, the song ends on C#.


And that's it! Hopefully you guys have found this tab helpful.

If you have anything you want to say, don't hesitate to leave 
a comment or send me an email! :D


************************************

| /   slide up
| \   slide down
| h   hammer-on
| p   pull-off
| ~   vibrato
| +   harmonic
| ·   mute note
| b   bend
| pb  pre-bend
| br  bend release
| pbr pre-bend release
| brb bend release bend

************************************

            
            
Suggest correction
Creating personal tab
Creating personal tab
You can edit any tab online and save it as your Personal.

You can edit, replace or remove any tab part or add personal notes – all changes will be seen only by you.

Personal tabs can be accessed anytime from any device, even offline.
Learn more »
Give kudos to tab author, rate the tab!
1 2 3 4 5
comments
print report bad tab
guest
You may want to rate the tab now too:
select rating
Wanna post a correction for this tab? Suggest correction