Oops, an error
Loading. Please wait.

Devil Seed tab

656 views 1 this week
no commentswrite comment
1 2 3 4 5
1 last vote to show rating
add to favorites
×
Save as Personal and add changes to this tab that will be seen only by you. Learn more ›
×
You can save this tab as Personal to edit and correct it or add notes. All changes will be seen only by you. Learn more »
launch autoscroll
font size
0
reset
how to read this tab
guitar tuner
edit
Autoscroll
slow
fast
+/-
esc
set tempo
stop
----------------------------------------------------------------------------------
Song: Devil Seed
Band: Candlemass
Album: King of the Grey Islands
Tabbed by: TrollFaceJesus
E-mail: trollfacejesus@gmail.com


Hey everyone, this is my tab for this song, and I think it sounds pretty awesome.
All of the rhythm sections in the song are here, but I didn't tab out the solo.
Hopefully everything in here is accurate, and you guys find this tab to be helpful!
If you have any questions, comments, or corrections to point out, please feel free
to leave a message here, or to send me an email! :D


Tuning: C#


Riff 1a (Starts at 0:00)
|-----------------------------------|
|-----------------------------------|
|-----------------------------------| x3
|-----------------------------------|
|--2-------3------------------------|
|------------------3-------2--------|


Riff 1b (Starts at 0:13)
|-----------------------------------|
|-----------------------------------|
|-----------------------------------| x1
|-----------------------------------|
|--2-------3-------------------5\---|
|------------------3-------2--------|


Riff 1a x 4


Riff 2 (Starting at 0:34)
|-----------------------------------|
|-----------------------------------|
|--4-------5------------------------| x4
|--4-------5-------------------0----|
|--2-------3---------------------3--|
|------------------3-2-3---1--------|


Riff 1a x 6

Riff 2 x 6


Riff 3a (Starts at 1:42)
|-------------------------------------------------------------------|
|-------------------------------------------------------------------|
|-------------------------------------------------------------------| x1
|-------------------------------------------------------------------|
|----------2-------1-------2---------------2-------1tr2-------------|
|--0---3-------3-------------------0---3-------3--------------------|


Riff 3b (Starting at 1:50)
|------------------------------------------------------------------|
|------------------------------------------------------------------|
|------------------------------------------------------------------| x1
|--------------------------------------------------2---------------|
|----------2-------1-------2-------5-4-2-----------2---------------|
|--0---3-------3-------------------3-2-0-----------0---------------|


Riff 3a x 1

Riff 3b x 1


Riff 4 (Starting at 2:12)
|----------------------------------|
|----------------------------------|
|----------------------------------| x3
|------------------3----2----3-----|
|------------------3----2----3-----|
|--0-000-0---0-0-0-1----0----1-----|
   . ... .   . . .


Riff 5 (Starting at 2:26)
|---------------|
|---------------|
|---------------| x3
|--5----4----5--|
|--5----4----5--|
|--3----2----3--|


Riff 6 (Starting at 2:33)
|-------------------------------------------------------------------|
|-------------------------------------------------------------------|
|-------------------------------------------------------------------| x6 (Play this under the solo)
|--2-------------------------------2--------------------------------|
|--2---------------9---------------2---------------10---------------|
|--0-------------------7-----------0-------0-0---------6------------|
                                           . .

Riff 7 (Starting at 3:21)
|-------------------------------------------------------------------|
|-------------------------------------------------------------------|
|----------------------------------5-------4-------5---5------------| x2
|--5-------4-------5---5-----------3-------2-------3-----------2----|
|--3-------2-------3-----------2---------------------------1--------|
|--------------------------1----------------------------------------|


Riff 8 (Starting at 3:37)
|-------------------------------------------------------------------|
|-------------------------------------------------------------------|
|--11-----------11\4-------------4/12-----------12\3----------------| x2
|--11-----------11\4-------------4/12-----------12\3----------------|
|--9------------9-\2-------------2/10-----------10\1----------------|
|-------------------------------------------------------------------|


Riff 9 (Starting at 3:53)
|-------------------------------------------------------------------|
|-------------------------------------------------------------------|
|-------------------------------------------------------------------| x2
|--11-----------11\4-------------4/12-----------12\3----------------|
|--11-----------11\4-------------4/12-----------12\3----------------|
|--9------------9-\2-------------2/10-----------10\1----------------|


Riff 1a x 4

Riff 2 x 6

Riff 3a x 1

Riff 3b x 1

Riff 3a x 1

Riff 3b x 1

Riff 4 x 3

Riff 5 x 3


|-----|
|-----|
|-----| Song ends on C#.
|--2--|
|--2--|
|--0--|


And that's basically it!


************************************

| /   slide up
| \   slide down
| h   hammer-on
| p   pull-off
| v   vibrato
| +   harmonic
| ·   mute note
| b   bend
| pb  pre-bend
| br  bend release
| pbr pre-bend release
| brb bend release bend

************************************

            
            
Suggest correction
Creating personal tab
Creating personal tab
You can edit any tab online and save it as your Personal.

You can edit, replace or remove any tab part or add personal notes – all changes will be seen only by you.

Personal tabs can be accessed anytime from any device, even offline.
Learn more »
Give kudos to tab author, rate the tab!
1 2 3 4 5
comments
print report bad tab
guest
You may want to rate the tab now too:
select rating
Wanna post a correction for this tab? Suggest correction