Oops, an error
Loading. Please wait.

Of Stars And Smoke Tab

696 views 3 this week
no commentswrite comment
1 2 3 4 5
please rate
add to favorites
launch autoscroll
font size
0
reset
how to read this tab
guitar tuner
Autoscroll
slow
fast
+/-
esc
set tempo
stop
Help us to improve Ultimate-Guitar.com Take our survey!
×
------------------------------------------------------------------------------
                          -=[Of Stars and Smoke - Candlemass]=-
------------------------------------------------------------------------------
Song: Of Stars and Smoke
Band: Candlemass
Album: King of the Grey Islands
Tabbed by: TrollFaceJesus
E-mail: trollfacejesus@gmail.com


Hey guys, this is my tab for this song, and it all seems pretty decent to me. 
All of the rhythm sections are here, but I didn't tab the solos. Hopefully you 
guys find this tab helpful and accurate, and if you have any comments, questions, 
or mistakes to point out, please feel free to leave a message here, or to send 
me an email! :D


Tuning: C#


Riff 1 (Guitar 1)
|---------------------------------------------------|
|---------------------------------------------------|
|---------------------------------------------------| x6
|--2-----------------------2------------------5-4/--|
|--2-----------------------2------------------------|
|--0---3-2---2-1---1-3-1---0---3-2---2-1---1--------|
                   . .

[Note: At the beginning of the song, guitar 2 plays 
this part once on the second time before playing the 
riff below.]

Riff 1 (Guitar 2)
|---------------------------------------------------|
|---------------------------------------------------|
|---------------------------------------------------| x4
|--2---5-4---4-3-----------2---5-4---4-3---3--5-4/--|
|--2---5-4---4-3-----------2---5-4---4-3---3--------|
|--0---3-2---2-1---1-3-1---0---3-2---2-1---1--------|
                   . .

Riff 2
|------------|
|------------|
|--5---------| x1
|----4---4v--|
|------3-----|
|------------|


Riff 3a
|--------------------------|
|--------------------------|
|--9---7---4----9---7---9--| x1
|--9---7---4----9---7---9--|
|--7---5---2----7---5---7--|
|--------------------------|


Riff 3b
|---------------------------|
|---------------------------|
|--9---7---4----9--7--5--4--| x1
|--9---7---4----9--7--5--4--|
|--7---5---2----7--5--3--2--|
|---------------------------|


Riff 1 x 4

Riff 2 x 1

Riff 3a x 1

Riff 3b x 1


Riff 4
|-----------------------|
|-----------------------|
|--2--------------------| x4
|--2----5----4----3--2--|
|--0----5----4----3--2--|
|-------3----2----1--0--|


Riff 5
|-----|
|-----|
|-----| x1
|--2--|
|--2--|
|--0--|


Keyboard/Flute Solo
|-----------------------------|
|-----------------------------|
|------------------4---7---9--| x1
|------4---5---7--------------|
|--7--------------------------|
|-----------------------------|


Riff 6a
|-------------------------------|
|-------------------------------|
|-------------------------------| x1
|--5-4-2------------------------|
|--5-4-2---7-6--------5--5---6--|
|--3-2-0-------8--8-7------8----|


Riff 6b
|-------------------------------|
|-------------------------------|
|-------------------------------| x1
|--5-4-2------------------------|
|--5-4-2---7-6--------5v~--6v~--|
|--3-2-0-------8--8-7-----------|


Riff 6c
|--------------------------------|
|--------------------------------|
|--------------------------------| x1
|--5-4-2-------------------------|
|--5-4-2---7-6--------5--5---6*--|
|--3-2-0-------8*--8-7-----8-----|

[Note: Guitar 2 plays this same riff, 
but without harmonics.]

Riff 6d
|------------------------------------|
|------------------------------------|
|------------------------------------| x1
|--5-4-2------------------------5-4--|
|--5-4-2---7-6--------5v~--6*---5-4--|
|--3-2-0-------8*--8-7----------3-2--|

[Note: Guitar 2 plays this same riff, 
but without harmonics.]


Riff 1 x 4

Riff 2 x 1

Riff 3a x 1

Riff 3b x 1

Then play riff 1 until the end of the song, or until you get bored.


And that's just about it!


************************************

| /   slide up
| \   slide down
| h   hammer-on
| p   pull-off
| v   vibrato
| .   Mute note
| *   harmonic
| b   Bend
| pb  Pre-bend
| br  Bend release
| pbr Pre-bend release
| brb Bend release bend

************************************
Suggest correction
Give kudos to tab author, rate the tab!
1 2 3 4 5
comments
print report bad tab
guest
You may want to rate the tab now too:
select rating
Wanna post a correction for this tab? Suggest correction