Oops, an error
Loading. Please wait.

Solitude Bass Tab

version 1
version 1

Whole song

Interactive

823 views 15 this week
no commentswrite comment
1 2 3 4 5
please rate
add to favorites
launch autoscroll
font size
0
reset
guitar tuner
Autoscroll
slow
fast
+/-
esc
set tempo
stop
Help us to improve Ultimate-Guitar.com Take our survey!
×
Author
Difficulty
novice
-------------------------------------------------------------------------------
                             SOLITUDE - Candlemass
This is my first tab so don't expect it to be great, it is although extremely easy
-------------------------------------------------------------------------------
Tabbed by: BassNTuba
E-Mail: captaincougar15@gmail.com

                     MAIN RIFF  START PLAYING AT MEASURE 19

G||--------------------------------------------------------------------------|
D|---------------------------------------------------------------------------|
A|-----2-----3--3--------------2---------------------------------------------|
B|--0----0-----------------0----2-----1--------------------------------------|


                             MEASURES 31-36

G|---------------------------------------------------------------------------|
D|---------------------------------------------------------------------------|
A|--------------------3--------2----------1----------------------------------|
B|--0--------1-----------------------------------1----3------X2--------------|



                     MAIN RIFF  37-54

G||--------------------------------------------------------------------------|
D|---------------------------------------------------------------------------|
A|-----2-----3--3--------------2---------------------------------------------|
B|--0----0-----------------0----2-----1--------------------------------------|
Suggest correction
Give kudos to tab author, rate the tab!
1 2 3 4 5
comments
print report bad tab
guest
You may want to rate the tab now too:
select rating
Please do not post tabs as comments. Select "correction" instead!