Oops, an error
Loading. Please wait.

The Well Of Souls Tab

version 1
version 1

Whole song

Interactive

5,055 views 6 this week
no commentswrite comment
1 2 3 4 5
x 7
add to favorites
launch autoscroll
font size
0
reset
how to read this tab
guitar tuner
Autoscroll
slow
fast
+/-
esc
set tempo
stop
Help us to improve Ultimate-Guitar.com Take our survey!
×
                            
                             THE WELL OF SOULS
                            ____________________
 
                               FOR CANDLEMASS
                            ___________________
                            
                         TABBED BY TALAL DAGHESTANI
                         __________________________


Legend: 
-------
h  hammer on
p  pull off
.  palm mute
~  vibrato 
^  bend
/  slide down                         
\  slide up
tuning ( Eb,Ab,Db,Gb,Bb,Eb ) every string down half a step 


MAIN RIFF
|---------------------------------------------------------|
|---------------------------------------------------------|
|---------------------------------------------------------|
|---------------------------------------------------------|
|----2-1-------2-3-2------2-1---1--2-1-3-2----------------|
|--0-----3-1-0-------1--0-----3---------------------------|

play main riff twice

RIFF A
|---------------------------------------------------------|
|---------------------------------------------------------|
|---------------------------------------------------------|
|---------------------------------2-1-4-5-4-5-4-----------|
|--2-1---------2-1----------2-3-2-------------------------|
|------3-2-2P3-----3-2-2P3--------------------------------|

riff a twice

|--------------|
|--------------|
|--------------|
|--------------|
|-2-1---2-1----|
|-----3-----3--|

main riff twice
riff A twice

|--------------|
|--------------|
|--------------|
|--------------|
|-2-1---2-1----|
|-----3-----3--|

RIFF B
|---------------------------------------------------------|
|---------------------------------------------------------|
|---------------------------------------------------------|
|-----------------------2-----2---------------------------|
|------------2-1---1----0-----0---------------------------|
|--0-2-3-2-0-----2---------1-----1------------------------|
                       
riff B twice                  
                   

RIFF C
|---------------------------------------------------------|
|---------------------------------------------------------|
|---------------------------------------------------------|
|-------------7-6-----------------------------------------|
|--7-8-5-7-8-------7-8-5------3-5-3-----------------------|
|------------------------8-7--1-3-1-----------------------|

riff c 4 times

RIFF D
|---------------------------------------------------------|
|---------------------------------------------------------|
|-------------7-6-----------------------------------------|
|--7-8-5-7-8-------7-8-5------3-5-3-----------------------|
|-------------------------8-7-1-3-1-----------------------|
|---------------------------------------------------------|

riff D twice

under solo:
riff D twice
riff Ctwice


after solo
RIFF E
|---------------------------------------------------------|
|---------------------------------------------------------|
|---------------------------------------------------------|
|---------------------------------------------------------|
|-------------------------------------------------7\8-----|
|-55555555-66-33-55-11-55--10-10--88-66-88-66-55--5\6-----|
  ........ .. .. .. .. ..  .   .  .. .. .. .. ..
                          \_____/
                             |
                      these are tens


riff E 4 times

RIFF F 
|---------------------------------------------------------|
|---------------------------------------------------------|
|---------------------------------------------------------|
|---------------------------------------------------------|
|-7-7-7--7/5--5\7--8-8-8--8/5--5\8------------------------|
|-5-5-5--5/3--3\5--6-6-6--6/3--3\6------------------------|
    . .              . .

riff F 4 times


RIFF G
|---------------------------------------------------------|
|---------------------------------------------------------|
|---------------------------------------------------------|
|---------------------------------------------------------|
|---3-2-0-3-2-0-2-3-2-0-2---0-----------------------------|
|-0-----------------------3---2-3-------------------------|

riff G 4 times



|-----------------------------------------------------------------|
|-----------------------------------------------------------------|
|-----------------------------------------------------------------|
|-----3-------4-------5-------4-------3-------4-------5-------4---|
|---3---3---4---4---5---5---4---4---3---3---4---4---5---5---4---4-|
|-1-------2-------3-------2-------1-------2-------3-------2-------|

|-----------------------------------------------------------------|
|-----------------------------------------------------------------|
|-----4-------5-------6-------5-------4-------5-------6-----------|
|---4---4---5---5---6---6---5---5---4---4---5---5---6---6---------|
|-2-------3-------4-------3-------2-------3-------4-------3-------|
|-----------------------------------------------------------------|


play main riff twice
play riff A twice
play riff B twice
play riff C until if fades out


Any corrections, solo, or comments please send to:  najwa@rss.gov.jo

Talal.
Suggest correction
comments
print report bad tab
guest
You may want to rate the tab now too:
select rating
Wanna post a correction for this tab? Suggest correction