Oops, an error
Loading. Please wait.

Tot Tab

294 views 1 this week
no commentswrite comment
1 2 3 4 5
2 more votes to show rating
add to favorites
launch autoscroll
font size
0
reset
how to read this tab
guitar tuner
Autoscroll
slow
fast
+/-
esc
set tempo
stop
Help us to improve Ultimate-Guitar.com Take our survey!
×
Author
Difficulty
Tuning
intermediate
C G C F A D
-------------------------------------------------------------------------------
                              Tot - Candlemass
-------------------------------------------------------------------------------
Tabbed by: Running_Dogg
Email: onlycrims@gmail.com

Tuning: Drop C (CGCFAD)



Another pretty easy piece by Candlemass
Just drop E string to C and all others one step down

-----------------
Intro and verse
-----------------
Play it silently, clean with a little of delay or reverb, I suggest to use your 
fingers rather than pick

First guitar play this

e|--------------------------------------------------------------------------|
B|--------------------------------------------------------------------------|
G|--------------------------------------------------------------------------|
D|------------3-------------------------------------------------------------|
A|--------------------------------------------------------------------------|
E|--0----2-------0----------------------------------------------------------|


Second guitar
                                  You can also play the slide thing this way
e|----------1-1p0----------------------------------|------------------------|
B|------3-----------3------------------------------|-3----------------------|
G|---2------------------2--------------------------|----2---0h2-------------|
D|--------------------------5/7~----2--3--0--------|--------------2--3--0---|
A|-------------------------------------------------|------------------------|
E|-------------------------------------------------|------------------------|

-----------------
Main riff (both)
-----------------
Both guitars play the same except the ending
Start together with that strong ring bell 
Heavy disortion
4x
                                   Second guitar play this ending
e|--------------------------------|-----------------------------------------|
B|--------------------------------|-----------------------------------------|
G|--------------------------------|--------2h32h32h32h32h3------------------|
D|--------------------------------|-----------------------------------------|
A|--7---2-1-2--8-8--7-7---2-1--8~-|---2-1-----------------------------------|
E|--7---2-1-2--8-8--7-7---2-1--8~-|---2-1-----------------------------------|




Then play whole verse and main riff again which you can also play the way below

-----------------
Outro riff 1
-----------------
Play this 4 times and on the last power chord let it ring


e|--------------------------------------------------------------------------|
B|--------------------------------------------------------------------------|
G|--------------------------------------------------------------------------|
D|-2----------3-3--2-2--------3---------------------------------------------|
A|-0---2-1-2--1-1--0-0---2-1--1---------------------------------------------|
E|-----2-1-2-------------2-1------------------------------------------------|


Then it goes into some classic thrash riffage


e|--------------------------------------------------------------------------|
B|--------------------------------------------------------------------------|
G|--------------------------------------------------------------------------|
D|-----8\7---7-----7-----7-----7/10-----------------------------------------|
A|-----6\5---5-----5-----5-----5/8------------------------------------------|
E|-0-0-----0---0-0---0-0---0-0----------------------------------------------|
   . .     .   . .   . .   . .


Lead guitar should play this at about 4:45

e|--------------------------------------------------------------------------|
B|--------------------------------------------------------------------------|
G|---7--7--7--7--77----8--8--8--8--8h10---7--7--7--7--77---3--3--3--3--3p2--|
D|--------------------------------------------------------------------------|
A|--------------------------------------------------------------------------|
E|--------------------------------------------------------------------------|



-----------------
Outro riff 2
-----------------

This goes after the lead, at first only one guitar play it, later the second join

e|--------------------------------------------------------------------------|
B|--------------------------------------------------------------------------|
G|--------------------------------------------------------------------------|
D|--------------------------------------------------------------------------|
A|-------0-----0-----0-----0------------------------------------------------|
E|--0-0--0--0--0--0--0--0--0--0-0-------------------------------------------|
    . .     .     .     .     . .


Play the first outro riff again till the end

No clue for backings
Propably lot flangers and delay or even made by keybord



************************************

| /   slide up
| \   slide down
| h   hammer-on
| p   pull-off
| ~   vibrato
| +   harmonic
| x   Mute note
| b   Bend
| pb  Pre-bend
| br  Bend release
| pbr Pre-bend release
| brb Bend release bend

************************************
Suggest correction
Give kudos to tab author, rate the tab!
1 2 3 4 5
comments
print report bad tab
guest
You may want to rate the tab now too:
select rating
Wanna post a correction for this tab? Suggest correction