Oops, an error
Loading. Please wait.

Voices In The Wind tab

version 1
version 1

Whole song

Interactive

79 views 1 this week
no commentswrite comment
1 2 3 4 5
1 last vote to show rating
add to favorites
×
Save as Personal and add changes to this tab that will be seen only by you. Learn more ›
×
You can save this tab as Personal to edit and correct it or add notes. All changes will be seen only by you. Learn more »
launch autoscroll
font size
0
reset
how to read this tab
guitar tuner
edit
Autoscroll
slow
fast
+/-
esc
set tempo
stop
*** CANDLEMASS - Voices in the Wind (1989) ***
Written by Leif Edling

Tabbed by Jon Malmin (13/05-2016)
Email: jogusmal@hotmail.com
Tuning: Half-step down (E♭‐A♭‐D♭‐G♭‐B♭‐E♭)

This interlude is played on an electric guitar with some slight distortion. Let the notes ring out as much as
you can. Start each arpeggio off by picking the lower notes lightly, and increase the strength gradually until
you reach the highest note. Pick the highest note the hardest, and then gradually decrease the strength while 
going back down the arpeggio before starting over again. Play gradually slower near the end.

        North is cold, summer is late
e|--------------2-----------------------2-----------|
B|-----------------5-----------------------5--------|
G|-----------4--------4--------------4--------4-----|
D|--------2--------------2--------2--------------2--|
A|-----2-----------------------2--------------------|
E|--0-----------------------0-----------------------|

        South is sorrow, surrounded by hate
e|--------------0-----------------------0-----------|
B|-----------6-----6-----------------6-----6--------|
G|--------7-----------7-----------7-----------7-----|
D|-----8-----------------8-----8-----------------8--|
A|--8-----------------------8-----------------------|
E|--------------------------------------------------|

        West is far, a dream you are creating
e|--------------2-----------------------2-----------|
B|-----------------5-----------------------5--------|
G|-----------4--------4--------------4--------4-----|
D|--------2--------------2--------2--------------2--|
A|-----2-----------------------2--------------------|
E|--0-----------------------0-----------------------|

        East is here, and your fate is awaiting
e|--------------0-----------------------------------|
B|-----------6-----6--------------------------------|
G|--------7-----------7-----------------------------|
D|-----8-----------------8--------------------------|
A|--8----------------------(8)----------------------|
E|--------------------------------------------------|

            
            
Suggest correction
Creating personal tab
Creating personal tab
You can edit any tab online and save it as your Personal.

You can edit, replace or remove any tab part or add personal notes – all changes will be seen only by you.

Personal tabs can be accessed anytime from any device, even offline.
Learn more »
Give kudos to tab author, rate the tab!
1 2 3 4 5
comments
print report bad tab
guest
You may want to rate the tab now too:
select rating
Wanna post a correction for this tab? Suggest correction