Oops, an error
Loading. Please wait.

Waterwitch Tab

511 views 1 this week
1 commentread comment
1 2 3 4 5
3 more votes to show rating
add to favorites
launch autoscroll
font size
0
reset
how to read this tab
guitar tuner
Autoscroll
slow
fast
+/-
esc
set tempo
stop
Help us to improve Ultimate-Guitar.com Take our survey!
×
Author
Difficulty
-------------------------------------------------------------------------------
Song: Waterwitch
Band: Candlemass
Album: Psalms for the Dead
Tabbed by: TrollFaceJesus
E-mail: trollfacejesus@gmail.com


Hey everyone, this is my tab for this song, and I think it sounds pretty awesome.
All of the rhythm sections in the song are here, but I didn't tab out the solo.
Hopefully everything here is accurate, and you guys find this tab to be helpful!
If you have any comments, questions, or corrections to point out, please feel free
to leave a message here, or to send me an email! :D


Tuning: C#


Riff 1 (Starts at 0:00)

  1 e & a 2 e & a 3 e & a 4 e & a 1 e & a 2 e & a 3 e & a 4 e & a
|-----------------------------------------------------------------|
|-----------------------------------------------------------------|
|-----------------------------------------------------------------| x4 [Note: Use a wah pedal
|-----------------------------------------------------------------|     for this riff.]
|-----3---2-----------5---4-----------3---2-----------------------|
|-0-----0---------0-----0---------0-----0---------0---3---2---1---|


Bass Break (Starting at 0:42)

  1 e & a 2 e & a 3 e & a 4 e & a
|---------------------------------|
|---------------------------------| x2
|-------------2---3---------------|
|-0-------------------------------|


Riff 2 (Starting at 0:51)

  1 e & a 2 e & a 3 e & a 4 e & a
|---------------------------------|
|---------------------------------|
|---------------------------------| x6
|---------------------------------|
|-------------2---3---------------|
|-0-------------------------------|


Riff 3 (Starting at 1:15)

  1 e & a 2 e & a 3 e & a 4 e & a 1 e & a 2 e & a 3 e & a 4 e & a
|-----------------------------------------------------------------|
|-----------------------------------------------------------------|
|-----------------------------------------------------------------| x2
|-----------------------------------------5-----------------------|
|-2-------3-------7-------6---------------------------3-------2---|
|-0-------1-----------8-------7---0---------------2-------1-------|


Bass Break x 2

Riff 2 x 6

Riff 3 x 4


Riff 4 (Starting at 2:30)

  1 e & a 2 e & a 3 e & a 4 e & a 1 e & a 2 e & a 3 e & a 4 e & a
|-----------------------------------------------------------------|
|-----------------------------------------------------------------|
|-----------------------------------------------------------------| x1
|---------5-------4---------------7---------------9---------------|
|-2-------3-------2---------------5---------------7---------------|
|-0---------------------------------------------------------------|


Riff 5 (Starting at 2:37)

  1 e & a 2 e & a 3 e & a 4 e & a
|---------------------------------|
|---------------------------------|
|---------------------------------| x1
|---------------------------------|
|-----5-------4-------3-----------|
|-3-------2-------1---------------|


Riff 6 (Starting at 2:40)
|---|
|---|
|---| x1
|-2-|
|-2-|
|-0-|


Riff 7 (Starting at 2:42)

  1 e & a 2 e & a 3 e & a 4 e & a 1 e & a 2 e & a 3 e & a 4 e & a
|-----------------------------------------------------------------|
|-----------------------------------------------------------------|
|-----------------------------------------------------------------| x4
|-2---2---3---3---2---2---1---1---2---2---3---3---2---2---1-------|
|-0---0-----3-------2-------1-----0---0-----3-------2-------------|
|-----------------------------------------------------------------|


Riff 8 (Starting at 3:15)

  1 e & a 2 e & a 3 e & a 4 e & a
|---------------------------------|
|---------------------------------|
|---------------------------------| x4
|-----------------6---6-----------|
|-4-----4-7-----7-4---4---5-0-5---|
|-2-----2-5-----5-----------------|


Riff 1 x 4

Bass Break x 2

Riff 2 x 6


Riff 9 (Starting at 5:03)

  1 e & a 2 e & a 3 e & a 4 e & a 1 e & a 2 e & a 3 e & a 4 e & a
|-----------------------------------------------------------------|
|-----------------------------------------------------------------|
|-----------------------------------------------------------------| x8
|---------------------------------------------------------2tr3----|
|-2-------2-----------2-----------2-------2-----------2-----------|
|-0-------0-------3-------2---1---0-------0-------3---------------|


Now just play "Riff 3" until the end of the song, or until your fingers fall off.


And that's it!


************************************

| /   slide up
| \   slide down
| h   hammer-on
| p   pull-off
| v   vibrato
| +   harmonic
| •   mute note
| b   Bend
| pb  pre-bend
| br  bend release
| pbr pre-bend release
| brb bend release bend

************************************
Suggest correction
Give kudos to tab author, rate the tab!
1 2 3 4 5
comments
print report bad tab
1 comment total.
0 reply
TrollFaceJesus 1,104 Jan 22, 2013 10:33 PM, edited on February 13 2015, 07:13 pm

Hey guys, disregard the correction I made down here in the comments; I made the appropriate changes in the tab itself. :D

guest
You may want to rate the tab now too:
select rating
Wanna post a correction for this tab? Suggest correction