Oops, an error
Loading. Please wait.

Witches Tab

version 2
version 2

Whole song

391 views 6 this week
1 commentread comment
1 2 3 4 5
please rate
add to favorites
launch autoscroll
font size
0
reset
how to read this tab
guitar tuner
Autoscroll
slow
fast
+/-
esc
set tempo
stop
Help us to improve Ultimate-Guitar.com Take our survey!
×
Author
Difficulty
Tuning
novice
D G C F A D
Intro Guitar 1 
d|---------------------------------------------------|
A|---------------------------------------------------| 
F|---------------------------------------------------| 
C|-2~~--2~~------------------------------------------| 
G|-2~~--2~~------------------------------------------| 
D|-0~~--0~~---0-0-0-0-0-0-0-0-0-0-0-0-0-0-0-0-0-0-0--|
P.M.          . . . . . . . . . . . . . . . . . . .
Intro Guitar 2( Heavy palm mute) Pinch harmonic on 9 on 12th time
d|--------------------------------------------------| 
A|--------------------------------------------------| 
F|--------------------------------------------------| x12
C|-8-0-8-0-8-0-8-0-7-0-7-0-9-0-9-0------------------| 
G|--------------------------------------------------| 
D|--------------------------------------------------|
P.M. . . . . . . . . . . . . . . .
Main Riff
d|--------------------------------------------------|
A|--------------------------------------------------| 
F|------------9---8---------------------------------| x12
C|--------------------------------------------------| 
G|------------7---6---------------------------------| 
D|-0-3-0-2-0----0-----------------------------------|
Intro x4
Main Riff x8
Chorus(On 8th time let last note ring on 4)
d|--------------------------------------------------| 
A|--------------------------------------------------| 
F|--------------------------------------------------| x8
C|--------------------------------------------------| 
G|-2-2-1---------1-2-4-5-4-2------------------------| 
D|-------3~~-2-3------------------------------------|
Harmony for Chorus above(on 4th time let last note ring on 7 not  5)
d|--------------------------------------------------| 
A|--------------------------------------------------| 
F|--------------------------------------------------| 
C|--------------------------------------------------| 
G|-5-5-4-2~~-1-2-4-5-7b9b7-5------------------------| 
D|--------------------------------------------------|
Riff 2
d|--------------------------------------------------| 
A|--------------------------------------------------| 
F|--------------------------------------------------| x12
C|-----9-----8-----4/5-5-5-4----9----8---4-5-7-5----| 
G|-----7-----6-----2/3-3-3-2----7----6---2-3-5-3----| 
D|-0-0---0-0---0-0-----------0-0-—0-0—0-0-----------|
P.M. .   . .   . .           . .  . . . .
Intro Riff x4
Second part(Heavy Palm muting)
d|--------------------------------------------------| 
A|--------------------------------------------------| 
F|--------------------------------------------------| x4
C|--------------------------------------------------| 
G|-9-0-9-0-9-0-9-0-7-0-7-0-5-0-5-0------------------| 
D|--------------------------------------------------|
Main Riff x12
Chorus x8
Outro
d|-----------------------------------------------------------------------| 
A|-----------------------------------------------------------------------| 
F|-----------------------------------------------------------------------| 
C|------4-3-----4-5-----5-4-------------4-3-----4-5-----5-4--------------| 
G|2-2-2-2-1-2-2-2-3-2-2-3-2-2-2-2-2-2-2-2-1-2-2-2-3-2-2-3-2-2-2-2-2-2-2--| 
D|0-0-0-----0-0-----0-0-----0-0-0-0-0-0-----0-0-----0-0-----0-0-0-0-0-0--|
P.M . .     . .     . .     . . . . . .     . .     . .     . . . . . . 


END \m/
Suggest correction new What's this?
You can suggest a correction to this tab. Community and Mods will review your correction and vote to approve or reject it.
comments
We did not receive enough feedback on this tab! Please rate:
print report bad tab
1 2 3 4 5
1 comment total.
0 reply
Schwimmy 160 wrote on January 21 2015, 10:40 am

Pretty good tab - timing is spot on, although the harmonies are a bit off and in the "intro guitar 2" part, the notes should one fret higher - 9,8, and 10. Still, this is really good for learning the song

guest
You may want to rate the tab now too:
select rating
Please do not post tabs as comments. Select "correction" instead!