Oops, an error
Loading. Please wait.

Madre tab

60 views 1 this week
no commentswrite comment
1 2 3 4 5
3 more votes to show rating
add to favorites
×
Save as Personal and add changes to this tab that will be seen only by you. Learn more ›
×
You can save this tab as Personal to edit and correct it or add notes. All changes will be seen only by you. Learn more »
launch autoscroll
font size
0
reset
how to read this tab
guitar tuner
edit
Autoscroll
slow
fast
+/-
esc
set tempo
stop
/        = deslizar hacia arriba
\        = deslizar hacia abajo
h        = hammer on
p        = pull off
b        = bending
v        = vibrato (tremolo or with left hand)
x        = Muted string string
P.M      = palm muting

Pa los que no saben los de Candy 66 son dos guitarristas asi que lo hice para dos guitarras, 
y afinan las guitarras de otra manera que seria C,G,C,F,A,D. 

Intro: 
Guitarra 1: Clean
D|---------------------------------------|
A|---------------------------------------|
F|---------------------------------------|
C|---------------------------------------|
G|--------------------8--------------8---|
C|-15/--0-0-0-0-0-0-0-0--0-0-0-0-0-0-0---|
          ....P.M...     ....P.M...

Guitarra 2: entra despues de la guitarra 1 (con efectos)
D|-13----12h13----12h13----12h13---------|
A|----15-------15-------15---------------|
F|---------------------------------------|
C|---------------------------------------|
G|---------------------------------------|
C|---------------------------------------|

Aquí revientan ...... Full distorsión, esto se repite varias veces

Guitarra 1:
D|---------------------------------------------|
A|---------------------------------------------|
F|---------------------------------------------|
C|---------------------------------------------|
G|---0--0-0--0-0--0-0-0-3-0--0-0--0-0--0-0-0-3-|
C|---0--0-0--0-0--0-0-0-3-0--0-0--0-0--0-0-0-3-|

Guitarra 2:
D|---------------------------------------------|
A|---------------------------------------------|
F|---------------------------------------------|
C|---------------------------------------------|
G|---0--0-0--0-0--0-0-0-8-0--0-0--0-0--0-0-0-8-|
C|---0--0-0--0-0--0-0-0-0-0--0-0--0-0--0-0-0-0-|

Verso I
Guitarra 1: con distorsión
D|---------------------------------------|
A|---------------------------------------|
F|---------------------------------------|
C|---------------------------------------|
G|-5b6-5-8-5b6-5-8-5-5b6-5---------------|
C|---------------------------------------|

Guitarra 2: con distorsión
D|---------------------------------------|
A|---------------------------------------|
F|---------------------------------------|
C|---------------------------------------|
G|-5b6-5-8-5b6-5-8-5-5b6-5---------------|
C|-0---0-0-0---0-0-0-0---0---------------|

Guitarra 1:
D|---------------------------------------------|
A|---------------------------------------------|
F|---------------------------------------------|
C|---------------------------------------------|
G|---0--0-0--0-0--0-0-0-3-0--0-0--0-0--0-0-0-3-|
C|---0--0-0--0-0--0-0-0-3-0--0-0--0-0--0-0-0-3-|

Guitarra 2:
D|---------------------------------------------|
A|---------------------------------------------|
F|---------------------------------------------|
C|---------------------------------------------|
G|---0--0-0--0-0--0-0-0-8-0--0-0--0-0--0-0-0-8-|
C|---0--0-0--0-0--0-0-0-0-0--0-0--0-0--0-0-0-0-|
 
Precoro: distorsión

D|---------------------------------------------|
A|---------------------------------------------|
F|-10-10-10-10-10-10-10------------------------|
C|-x--x--x?-8--8?-8--8\10-10-10----------------|
G|-8--8--8?-8--8?-8--8\10-10-10----------------|
C|-0--0--0?-8--8?-8--8\10-10-10----------------|

Coro: distorsión

D|---------------------------------------------|
A|---------------------------------------------|
F|-10-10-10-10-10-10-10------------------------|
C|-x--x--x?-8--8?-8--8\10-10-10----------------|
G|-8--8--8?-8--8?-8--8\10-10-10----------------|
C|-0--0--0?-8--8?-8--8\10-10-10----------------|

Final: Clean

D|----------|
A|----------|
F|----------|
C|----------|
G|-0x-8p7---|
C|-0--------|

            
            
Suggest correction
Creating personal tab
Creating personal tab
You can edit any tab online and save it as your Personal.

You can edit, replace or remove any tab part or add personal notes – all changes will be seen only by you.

Personal tabs can be accessed anytime from any device, even offline.
Learn more »
Give kudos to tab author, rate the tab!
1 2 3 4 5
comments
print report bad tab
guest
Wanna post a correction for this tab? Suggest correction