Oops, an error
Loading. Please wait.

Feed It Tab

362 views 1 this week
1 commentread comment
1 2 3 4 5
x 3
add to favorites
launch autoscroll
font size
0
reset
how to read this tab
guitar tuner
×
Best way to learn
"Feed It"
Autoscroll
slow
fast
+/-
esc
set tempo
stop
Artist:  Candyskins
Song:  Feed it
Tabbed by:  Isaiah MacMenami

I noticed that only the bass tab to this song had been submitted,
so I decided to spread my "wealth" of knowledge and let eveyone in to
my dark little secret..."I know the guitar tab to this song"  In any
case here we go!  I'm like 90% sure this is right.

Intro/verses: (strum each chord like 16 times!)
e--2---2---|
B--3---3---|
G--2---4---|
D--0---0---|
A----------|
E----------|

Chorus:
e--2----0----3----2---0----3--|
B--3----2----3----3---2----3--|
G--2----2----0----2---2----0--|
D--0----2----0----0---2----0--|
A-------0----2--------0----2--|
E------------3-------------3--|

Guitar solo: (I've just posted the chord progression
under the organ, or whatever instrument that is...)
e--0---3---0---1-----------|
B--1---3---0---1-----------|
G--0---0---1---2-----------|
D--2---0---2---3-----------|
A--3---2---2---3-----------|
E------3---0---1-----------|

Well, I think that's pretty much it.  You'll have to listen for the
strumming patterns, I didn't really want to take the time to write
it all out.  But I think I've laid down the foundation for it.
I don't have a guitar with me right now and I'm going just from memory
so if there are any mistakes (i.e. left out chords) just post your
rendition of this tab!  Well, I hope you enjoy it!

-Isaiah
Suggest correction
Give kudos to tab author, rate the tab!
1 2 3 4 5
comments
print report bad tab
1 comment total.
0 reply
BRD 10 Nov 10, 2006 03:04 PM

Sounds fairly Right

Thanks

guest
You may want to rate the tab now too:
select rating
Wanna post a correction for this tab? Suggest correction