Oops, an error
Loading. Please wait.

On The Road Again Tab

version 2
version 2

Whole song

Interactive

8,788 views 3 this week
1 commentread comment
1 2 3 4 5
please rate
add to favorites
launch autoscroll
font size
0
reset
how to read this tab
guitar tuner
Tab Pro tools
  • play this tab
  • loop segment
  • change instrument
  • show fretboard
  • metronome
×
Best way to learn
"On The Road Again"
Autoscroll
slow
fast
+/-
esc
set tempo
stop
On the road again by Canned heat:
Cool little song! The End Riff is always played when Guitar1
plays MainB. Im not sure how the rest of this song goes, I
only have the first 60 seconds to listen to. This is pretty much the whole songs riffs.
# Intro #Guitar1
E-----------------------12-|
B-------------------12-----|
G---------------12---------|
D-----------12-------------|
A-------12-----------------|
E---12---------------------|
:
# Riff #Guitar2 v=vibrato m=palm mute
E----mmmm--mm-----------------------------|\
B-----------------------------------------| \
G-----------------------------------------|  \
D----9999--99-7v-5v----9-12--12-14-15/9v--|   \
A-----------------------------------------|    \
E-----------------------------------------|     \
# Intro/Verse #Guitar1 !Palm Muted!           !Same Scale!
E----------!MainA!-----|-----!MainB!------|     /
B----------------------|------------------|    /
G----------------------|------------------|   /
D----------------------|------------------|  /
A----99999999999999999-|-9-9--12-14--14-9-| /
E----77777777777777777-|-7-7--10-12--12-7-|/
:
# End Riff #Guitar2
E---------------------|
B---------------------|
G---------------------|
D--9-12--12-14-15/9v--| !Play when Guitar2 plays
A---------------------|  MainB!
E---------------------|
:
Guitar1 Plays Intro/Verse Guitar2 Plays End Riff


Nice song, email me questions/comments or whatever at...
jimp_fx@hotmail.com.

~HalfDigested~
comments
We did not receive enough feedback on this tab! Please rate:
print report bad tab
1 2 3 4 5
1 comment total.
0 reply
Tone Jones wrote on March 17 2007, 02:52 am

-------------------------------------------------------------------------------
On The Road Again - Canned Heat
-------------------------------------------------------------------------------
Tabbed by: Tone Jones
Email:

Tuning: Standard Tuning Moderate Blues 132 bpm
Harmonics (Let Ring)
e|---------------------------------------------------------------------------|
B|----------------------------------------------------12-------------------
G|-------------------------------------12----------------------------------
D|---------------------------------------------------------------------------|
A|-------------12---------7------------------------------------------------
E|--12----------------------------------------------------------------------

e|--0---0---0----0-----0-----0-----0-----0---0-----0-----0-----------
B|---------------------------------------------------------------------------|
G|---------------------------------------------------------------------------|
D|--2---2---2----2-----2-----2-----2-----2---2-----2-----2-----------
A|---------------------------------------------------------------------------|
E|---------------------------------------------------------------------------|

e|---------------------------------------------------------------------------|
B|---------------------------------------------------------------------------|
G|---------------------------------------------------------------------------|
D|---------------------------------------------------------------------------|
A|---------------------------------------------------------------------------|
E|--0---------0-----------0-----------0-----------0----------0-----------

I want to post or [tab]
guest
You may want to rate the tab now too:
select rating
Please do not post tabs as comments. Select "correction" instead!