Oops, an error
Loading. Please wait.

On The Road Again Tab

version 3
version 3

Whole song

Interactive

23,117 views 3 this week
2 commentsread comments
1 2 3 4 5
accurate
x 3
add to favorites
launch autoscroll
font size
0
reset
how to read this tab
guitar tuner
Autoscroll
slow
fast
+/-
esc
set tempo
stop
Help us to improve Ultimate-Guitar.com Take our survey!
×
Author
Difficulty
intermediate
On The Road Again
Canned Heat
tabbed by A.J. GOOSE

intro
e||-----------------12----------|
B||--------------12-------------|
G||-----------12----------------|
D||--------12-------------------|
A||-----12----------------------|
E||--12-------------------------|

main riff (I think it is bass)

     ^ V  ^ V  ^ V  ^ V  ^ V  ^ V  ^ V ^ V
e||------------------------------------------|
B||------------------------------------------|
G||------------------------------------------|
D||------------------------------------------|
A||------------------------------------------|
E||--0-0--0-0--0-0--0-0--0-0--0-0--0-0-3-5---|

This is the main harmonica riff. I think it goes more or less like this on the guitar.
Slides shown as / (without a length) are very quick and they should be just about one 
long. With a bit of practice they are quite simple to play.
e||----------------------------------------------------------------------------------||x2
B||----------------------------------------------------------------------------------||
G||---------------------------------------------------------------12b(14)-14--12\9---||
D||--14b(15)-14b(15)-14~-14--14-14-12b(14)r12/----14b(15)-14b(15)--------------------||
A||----------------------------------------------------------------------------------||
E||----------------------------------------------------------------------------------||

e||---------------------------------------------------------|
B||--14p12-----14p12----------------------12b(14)-14--12\9--|
G||--------14--------14\--14b(15)-14b(15)-------------------|
D||---------------------------------------------------------|
A||---------------------------------------------------------|
E||---------------------------------------------------------|

With voice you can still play this or :
e||-------------------------------------------------------------------------------------------|
B||-------------------------------------------------------------------------------------------|
G||--------------------------------------------------------------------------12b(14)-14--12\9-|
D||--14b(15)-14-14-14---14b(15)-14-14-14---14b(15)-14-14-14--14b(15)-14b(15)------------------|
A||-------------------------------------------------------------------------------------------|
E||-------------------------------------------------------------------------------------------|

  harmonica solo:
e||-------------------------------12b(14)-12p10------------------------12b(14)r12---|
B||-------------------------12-15--------------------------------12-15--------------|
G||----------(10)\12--12-14-----------------------(10)\12--12-14--------------------|
D||--14b(16)------------------------------14b(16)-----------------------------------|
A||---------------------------------------------------------------------------------|
E||---------------------------------------------------------------------------------|

e||--12-----------------------------------------------------------------------------------------|
B||-----15-12-----------------------------------------------------------------------------------|
G||-----------14-12-14-12-14-12----12--14-12----12----------------------------------------------|
D||-----------------------------14-----------14------------12--14b(15)-12-14b(15)-12-14b(15)-12-|
A||------------------------------------------------14b(16)--------------------------------------|
E||---------------------------------------------------------------------------------------------|

e||-----------------------------------------|
B||-----------------------------------------|
G||-----------------------------------------|
D||--14b(15)-12-14b(15)-12----------12-14~--|
A||-------------------------14b(16)---------|
E||-----------------------------------------|

harmonica finish solo:
e||--------------------------------------------------------------------------------|
B||--------------------------------------------------------------------------------|
G||----------------12-14--14b(15)-14p12-14b(15)-14p12-14b(15)-14p12--14-14-(12)\9--|
D||--14b(15)-14-14-----------------------------------------------------------------|
A||--------------------------------------------------------------------------------|
E||--------------------------------------------------------------------------------|
b
e||------------------------------------------------------------------------------------------|
B||------------------------------------------------------------------------------------------|
G||-------------------------------12-14--14b(15)-12--14b(12)r14-12--14p12--------------------|
D||-----------------14b(15)-14-14-----------------------------------------14-----------------|
A||--14\12--10b(11)-----------------------------------------------------------14\12--10b(11)-|
E||------------------------------------------------------------------------------------------|

e||----------------------------------------------------------------------|
B||----------------------------------------------------------------------|
G||----------------14-12-------------------------------------------------|
D||--14~~~---------------14-12----14b(15)-14b(15)-14-12\--14b(15)-14-12\-|
A||----------------------------------------------------------------------|
E||----------------------------------------------------------------------|

e||-------------------------------------------------------------------------|
B||-------------------------------------------------------------------------|
G||-------------------------------------------------------------------------|
D||--14b(15)-14b(15)-12-14-14\---14b(15)-12----14b(15)-14b(15)-12--14-12----|
A||-----------------------------------------14---------------------------14-|
E||-------------------------------------------------------------------------|

e||----------------------------------------------------------------------------|
B||----------------------------------------------------------------------------|
G||------------------------14b(15)-14b(15)-14p12------14b(16)r14-14b(16)r14p12-|
D||--14b(15)p12-14b(15)p12-----------------------14~---------------------------|
A||----------------------------------------------------------------------------|
E||----------------------------------------------------------------------------|

e||------------------------------------------------------------------------------------|
B||------------------------------------------------------------------------------------|
G||---14b(15)-14b(15)-14b(15)-14p12--------12--14b(15)-14b(15)-14b(15)-14b(15)-14b(15)-|
D||---------------------------------14--14---------------------------------------------|
A||------------------------------------------------------------------------------------|
E||------------------------------------------------------------------------------------|

e||------------------------------------------------------------------|
B||------------------------------------------------------------------|
G||--14h12--------------------14b(15)-14b(15)-14b(15)-14b(15)-14-12--|
D||--------14--------------------------------------------------------|
A||-----------14\12--10b(11)-----------------------------------------|
E||------------------------------------------------------------------|

e||----------------------------------------------------------------------|
B||----------------------------------------------------------------------|
G||--14b(15)-12-14b(15)-12-14b(15)-12-14b(15)-12-14p12-------------------|
D||----------------------------------------------------14----------------|
A||-------------------------------------------------------14\12--10b(11)-|
E||----------------------------------------------------------------------|

e||---------------------------------------------------------------------------|
B||---------------------------------------------------------------------------|
G||---------------------------------------------------------------------------|
D||--14b(15)-12-14b(15)-12-14b(15)----12--14b(15)-12-14b(15)-12-14b(15)----12-|
A||--------------------------------14-----------------------------------14----|
E||---------------------------------------------------------------------------|

e||-------------------------------------------------------------------------------|
B||-------------------------------------------------------------------------------|
G||-------------------------------------------------------------------------------|
D||-----12-14-12----12-14-12----12-14-12------12-14-12----12-14-12----12-14-12----|
A||--14----------14----------14------------14----------14----------14----------14-|
E||-------------------------------------------------------------------------------|

e||----------------------------------|
B||----------------------------------|
G||----------------------------------|
D||--14b(16)-14p12\------------------|
A||----------------------------------|
E||----------------------------------|

e||------------------------------------------------------------------------|
B||------------------------------------------------------------------------|
G||-----------------------14b(16)---14b(16)--14b(16)--14p12--14b(16)-14p12-|
D||--14b(16)--------12h14--------------------------------------------------|
A||------------------------------------------------------------------------|
E||------------------------------------------------------------------------|

e||--------------------------------------------------------------------------|
B||--------------------------------------------------------------------------|
G||--14b(16)--14p12----14b(16)--14p12----14b(16)--14p12----14b(16)--14p12----|
D||-----------------14----------------14----------------14----------------14-|
A||--------------------------------------------------------------------------|
E||--------------------------------------------------------------------------|

e||---------------------------------------------------------------------------|
B||---------------------------------------------------------------------------|
G||--14b(16)~--14b(16)~--14b(16)~--14b(16)~--14-12-14-12----12-14-12----------|
D||------------------------------------------------------14----------14-12-14-|
A||---------------------------------------------------------------------------|
E||---------------------------------------------------------------------------|

e||----------------------|
B||----------------------|
G||----------------------|
D||--14\12-9-------------|
A||----------------------|
E||----------------------|

guitar outro:
e||--12------------------|
B||-----12---------------|
G||--------12------------|
D||-----------12---------|
A||--------------12------|
E||-----------------12---|
Suggest correction
What's this?
You can suggest a correction to this tab. Community and Mods will review your correction and vote to approve or reject it.
comments
We did not receive enough feedback on this tab! Please rate:
print report bad tab
1 2 3 4 5
2 comments total.
+1 reply
Tone Jones 12,404 wrote on March 17 2007, 02:46 am

Try this for size

-------------------------------------------------------------------------------
On The Road Again - Canned Heat
-------------------------------------------------------------------------------
Tabbed by: Tone Jones
Email:

Tuning: Standard Tuning Moderate Blues 132 bpm
Harmonics (Let Ring)
e|---------------------------------------------------------------------------|
B|----------------------------------------------------12-------------------
G|-------------------------------------12----------------------------------
D|---------------------------------------------------------------------------|
A|-------------12---------7------------------------------------------------
E|--12----------------------------------------------------------------------

e|--0---0---0----0-----0-----0-----0-----0---0-----0-----0-----------
B|---------------------------------------------------------------------------|
G|---------------------------------------------------------------------------|
D|--2---2---2----2-----2-----2-----2-----2---2-----2-----2-----------
A|---------------------------------------------------------------------------|
E|---------------------------------------------------------------------------|

e|---------------------------------------------------------------------------|
B|---------------------------------------------------------------------------|
G|---------------------------------------------------------------------------|
D|---------------------------------------------------------------------------|
A|---------------------------------------------------------------------------|
E|--0---------0-----------0-----------0-----------0----------0-----------

0 reply
Tone Jones 12,404 wrote on March 17 2007, 02:49 am

The Intro is inportant to this classic when you first here it

guest
You may want to rate the tab now too:
select rating
Please do not post tabs as comments. Select "correction" instead!