Oops, an error
Loading. Please wait.

Poor Moon Bass Tab

1,868 views 1 this week
no commentswrite comment
1 2 3 4 5
1 last vote to show rating
add to favorites
launch autoscroll
font size
0
reset
guitar tuner
Autoscroll
slow
fast
+/-
esc
set tempo
stop
Help us to improve Ultimate-Guitar.com Take our survey!
×
 Canned Heat - Poor Moon (1969)
 Written by Alan Wilson
 Tabbed By: Jon Malmin
 E-mail: jogusmal@hotmail.com

Tuning: Half-Step Down

I normally don't do text tabs, and certainly not bass tabs, 
but I'm a decent bassist and this awesomely trippy song needed a tab. 

Riff A (between verses):
G|---------------------------|
D|--0--0--0--0--0--4--0--0---|
A|---------------------------|
E|---------------------------|


Riff B (verse riff): 
G|-------------6--7----------|
D|--0--0--4h7--------7--4----|
A|---------------------------|
E|---------------------------|


Riff C (Chorus):
G|--7--7--7--77--7-----------|
D|------------------4--5--7--|
A|---------------------------|
E|---------------------------|

Mid-section 
(Somewhat 6/8-ish without a set tempo, these are the notes however)
G|--7----------------------------------------------------|
D|---------------------------7----7---------7---------7--|
A|-------5----2----5----2--------------7---------7-------|
E|-------------------------------------------------------|

These are all the parts! Simplistic song, indeed,
but it's great to jam along to. Enjoy!

| /  slide up
| \  slide down
| h  hammer-on
| p  pull-off
| ~  vibrato
| +  harmonic
| x  Mute note
===============================================================================
Suggest correction
Give kudos to tab author, rate the tab!
1 2 3 4 5
comments
print report bad tab
guest
You may want to rate the tab now too:
select rating
Wanna post a correction for this tab? Suggest correction