Oops, an error
Loading. Please wait.

Rollin And Tumblin bass

598 views 6 this week
no commentswrite comment
1 2 3 4 5
3 more votes to show rating
add to favorites
×
Save as Personal and add changes to this tab that will be seen only by you. Learn more ›
×
You can save this tab as Personal to edit and correct it or add notes. All changes will be seen only by you. Learn more »
launch autoscroll
font size
0
reset
guitar tuner
edit
Autoscroll
slow
fast
+/-
esc
set tempo
stop
Author
Rollin and Tumblin
A Muddy Waters song, this version by Canned Heat released in 1967 from 
their debut album. Bass performance Larry Taylor. Tab by bass50611
Welcome to my tab of this old Muddy Waters song. Not exact but this
What I would play on stage. Note pause dots at the start
Comments bass254@btinternet.com 

Intro:
  ‘.’  ‘.’  ‘.’  ‘.’
G|--------------------5---5---5---5---------------------2-3-4-|
D|-5----5----5----5-----5---5---5---2-3-4-5---5---5---5-------|
A|------------------------------------------5---5---5---------|
E|------------------------------------------------------------|

G|-5---5---5---5---------------------4-5-6----------------------|
D|---5---5---5---2-3-4-5---5---5---5----------------------2-3-4-|
A|-----------------------5---5---5---------5---5----3---3-------|
E|-------------------------------------------5---5----3---------|

G|---------------2-3-4-|
D|-5---5---5---5-------|
A|---5---5---5---------|
E|---------------------|

Verse 1:
G|-5---5---5---5---------------------2-3-4-5---5---5---5-------|
D|---5---5---5---2-3-4-5---5---5---5---------5---5---5---2-3-4-|
A|-----------------------5---5---5-----------------------------|
E|-------------------------------------------------------------|

G|---------------4-5-6------------------------------------2-3-4-|
D|-5---5---5---5----------------------2-3-4-5---5---5---5-------|
A|---5---5---5---------5---5----3---3---------5---5---5---------|
E|-----------------------5---5----3-----------------------------|

Verse 2:
G|------------------------------------------------2-3-4----------------|
D|--2-5-2---2-5-2---2-5-2---2-5-2---5---5---5---5--------2-5-2---2-5-2-|
A|-3-------3-------3-------3----------5---5---5---------3-------3------|
E|---------------------------------------------------------------------|

G|--------------------------------4-5-6----------------------|
D|--2-5-2---2-5-2---5---5---5---5----------------------2-3-4-|
A|-3-------3----------5---5---5---------5---5----3---3-------|
E|----------------------------------------5---5----3---------|

G|---------------2-3-4-|
D|-5---5---5---5-------|
A|---5---5---5---------|
E|---------------------|

Verse 3:
G|-----2-5-2----------2-5-5-5-5----------------2-3-4-----2-5-2----|
D|--2-5-----2-5----2-5-----------5---5---5---5--------2-5-----5-2-|
A|-3-------------3-----------------5---5---5---------3------------|
E|----------------------------------------------------------------|

G|-----2-5-5-5-5---------------4-5-6----------------------|
D|--2-5----------5---5---5---5----------------------2-3-4-|
A|-3---------------5---5---5---------5---5----3---3-------|
E|-------------------------------------5---5----3---------|

G|---------------2-3-4-|
D|-5---5---5---5-------|
A|---5---5---5---------|
E|---------------------|

Solo:
G|-----2-5-2----------2-5-5-5-5----------------2-3-4-----2-5-2----|
D|--2-5-----2-5----2-5-----------5---5---5---5--------2-5-----5-2-|
A|-3-------------3-----------------5---5---5---------3------------|
E|----------------------------------------------------------------|

G|-----2-5-5-5-5---------------4-5-6----------------------|
D|--2-5----------5---5---5---5----------------------2-3-4-|
A|-3---------------5---5---5---------5---5----3---3-------|
E|-------------------------------------5---5----3---------|

G|---------------2-3-4-|
D|-5---5---5---5-------|
A|---5---5---5---------|
E|---------------------|

Verse 4:
G|-5---5---5---5---------------------2-3-4-5---5---5---5-------|
D|---5---5---5---2-3-4-5---5---5---5---------5---5---5---2-3-4-|
A|-----------------------5---5---5-----------------------------|
E|-------------------------------------------------------------|

G|---------------4-5-6------------------------------------2-3-4-|
D|-5---5---5---5----------------------2-3-4-5---5---5---5-------|
A|---5---5---5---------5---5----3---3---------5---5---5---------|
E|-----------------------5---5----3-----------------------------|

Verse 5:
G|-----2-5-2----------2-5-5-5-5----------------2-3-4-----2-5-2----|
D|--2-5-----2-5----2-5-----------5---5---5---5--------2-5-----5-2-|
A|-3-------------3-----------------5---5---5---------3------------|
E|----------------------------------------------------------------|

G|-----2-5-5-5-5---------------4-5-6----------------------|
D|--2-5----------5---5---5---5----------------------2-3-4-|
A|-3---------------5---5---5---------5---5----3---3-------|
E|-------------------------------------5---5----3---------|

G|---------------2-3-4-|
D|-5---5---5---5-------|
A|---5---5---5---------|
E|---------------------|

Outro:  (Song Fades Out Halfway Through Outro)
G|-----2-5-2----------2-5-5-5-5----------------2-3-4-----2-5-2----|
D|--2-5-----2-5----2-5-----------5---5---5---5--------2-5-----5-2-|
A|-3-------------3-----------------5---5---5---------3------------|
E|----------------------------------------------------------------|

G|-----2-5-5-5-5---------------4-5-6----------------------|
D|--2-5----------5---5---5---5----------------------2-3-4-|
A|-3---------------5---5---5---------5---5----3---3-------|
E|-------------------------------------5---5----3---------|

G|---------------2-3-4-|
D|-5---5---5---5-------|
A|---5---5---5---------|
E|---------------------|

‘.’ Are pause dots.


I roll and I tumble, cried the whole night long
Yes I roll and I tumble, I cried the whole night long
I got up this morning, feeling that something going on wrong
Well now want you to love me baby, or please let me be
Yes love me baby, or please let me be
If you don't like my peaches please don't shake my tree
Well I want you to love me baby, and come on and say you'll be mine
I want you to love me baby, come and say you'll be mine
If you don't like my potatoes, please don't dig up my vine
Suggest correction
Creating personal tab
Creating personal tab
You can edit any tab online and save it as your Personal.

You can edit, replace or remove any tab part or add personal notes – all changes will be seen only by you.

Personal tabs can be accessed anytime from any device, even offline.
Learn more »
Give kudos to tab author, rate the tab!
1 2 3 4 5
comments
print report bad tab
guest
You may want to rate the tab now too:
select rating
Wanna post a correction for this tab? Suggest correction