Oops, an error
Loading. Please wait.

A Cauldron Of Hate Tab

version 1
version 1

Whole song

Interactive

4,200 views 3 this week
no commentswrite comment
1 2 3 4 5
accurate
x 4
add to favorites
launch autoscroll
font size
0
reset
how to read this tab
guitar tuner
Autoscroll
slow
fast
+/-
esc
set tempo
stop
Help us to improve Ultimate-Guitar.com Take our survey!
×
Author
Tuning
B E A D F# B
   RHY. FIG 1 (intro)
1---------------------------------------------------------------------------|
2---------------------------------------------------------------------------|
3---------------------------------------------------------------------------|
4---------------------------------------------------------------------------|
5----5-5-3-----------------9-9-8--1010-9------------------------------------|
6----3-3-1-0-0-3-0-0-6-0-0-7-7-6-0-8-8-7-0-0-0---6-7-7-10-0-3-3-6-0-0-8-0-0-|

 p.m------------------------------------------------------------------------

1------------------|
2------------------|
3------------------| X3
4------------------|
5------------------|
6-6-0-0-7-0-0-6-0-0|

p.m-----------------

     VERSE at (0:21), and (1:12)
1----------------------------------------------|
2----------------------------------------------|
3----------------------------------------------|X2
4----------------------------------------------|
5----5-5-3-----------------9-9-8--1010-9-------|
6----3-3-1-0-0-3-0-0-6-0-0-7-7-6-0-8-8-7-0-0-0-|

p.m---------------------------------------------

   Chorus at (0:42), (1:32), AND  (3:49)
1---------------------------------------------------------------------------|
2---------------------------------------------------------------------------|
3---------------------------------------------------------------------------|
4----------------------------------------------------------4----------------|
5----8-8-8-8-8-8-8-8-8-8-8-8-8-8-8-8------------------2--3-2----8-8-8-8-8-8-|
6-------------------------------------0-0-0-0-6-6-6-6-0--1------------------|

                                                   p.m-------

1---------------------------------------------------------------------------|
2---------------------------------------------------------------------------|
3---------------------------------------------------------------------------|
4-----6-6-6-6-6-6-6-6-------------------------------------------------------|
5-8-8---------------------------------9-9-9-9-7-7-7-7-8-8-8-8-8-8-8-8-8-8-8-|
6---------------------0-0-0-0-6-6-6-6---------------------------------------|


1--------------------------------------------------------------------|
2--------------------------------------------------------------------|
3--------------------------------------------------------------------|
4--------------------------------4-----------------------------------|
5-8-8-8-8-8-----------------2--3-2------3-3-4---6-6-4---6-6-8---9-9-8|
6-----------0-0-0-0-6-6-6-6-0--1------0-1-1-2-0-4-4-2-0-4-4-6-0-7-7-6|


    RHY. FIG at (1:01)
1---------------------------------------------------------------------------|
2---------------------------------------------------------------------------|
3---------------------------------------------------------------------------|
4---------------------------------------------------------------------------|
5---------------------3---6-------------------------------------------------|
6---3--0--3--0---6--0---5---5--3--6--3--0--1--0---3--0--0--0--0--0--0--6--5-|

p.m------------------------------------------------------------------------|

1-----------------------|
2-----------------------|
3-----------------------|
4-----------------------|
5-----------------------|
6---3--0--6--0--0--0--0-|

p.m----------------------|
this part leaves off on the word terrorize at (1:52)

1--------------------------------------------------------------------------|
2--------------------------------------------------------------------------|
3--------------------------------------------------------------------------|
4--------------------------------------------------------------------------|
5--------------------------------------------------------------------------|
6--0-6-6-0-5-5-2-0-6-6-9-0-0-0-0-6-6-0-9-0-0-12-0-0--0-6-6-0-5-5-2-0-6-9-0-|

P.M-----------------------------------------------------------------------|


1--------------------------------|
2--------------------------------|
3--------------------------------|
4--------------------------------|
5--------------------------------|
6-0-9-0-0-11-0-0-12--14--14-11-11|

p.m------------------------------|

 this part leaves off on the word your dimise

1---------------------------------------------------------------------------|
2---------------------------------------------------------------------------|
3---------------------------------------------------------------------------|
4---------------------------------------------------------------------------|
5---------------------------------------------------------------------------|
6--6-6-0-5-5-2-0-6-6-9-0-0-0-0-6-6-0-9-0-0-12-0-0--0-14-14-11-0-12-12-9-0-9-|

p.m-------------------------------------------------------------------------

1-----------------------------|
2-----------------------------|
3-----------------------------|
4-----------------------------|
5-----------------------------|
6--9-6-0-5-5-2-0-0-0-0-0-0-6-6|

p.m----------------------------|


(2:18)

1---------------------------------------------------------------|
2---------------------------------------------------------------|
3----6----5--------------------------------------------3--------|
4----x----x------4------3-------2----------------------x--------|
5----4----3------x------x-------x----------------------1--------|
6----------------2------1-------0-------------------------------|

 (2:28)

1--------------------------------------------------------------------------|
2--------------------------------------------------------------------------|
3--------------------------------------------------------------------------|
4--------------------------------------------------------------------------|
5--------------------------------------------------------------------------|
6-6-0-0-3-0-0-6-0-0-6-0-0-3-0-0-6-0-0-3-0-0-9-0-0-6-0-0-3-0-0-6-7-9-7-9-10-|

p.m.----------------------------------------------------------------------

1--------------------------|
2--------------------------|
3--------------------------|
4--------------------------|
5-------------7-8-10-8-7---|
6-6-7-9-7-9-10-----------10|

----------------------------|

 (2:49)

1---------------------------------------------------------------------------|
2---------------------------------------------------------------------------|
3---------------------------------------------------------------------------|
4----------------------------11----------------11---12--11---12-11---12-----|
5-----------------------------x-----------------x---------------------------|
6--6--0--0--3--0--0--6--0--0--9--0--0--0--6--0--9-/-10-\-9-/-10-\9-/-10-----|

p.m-------------------------     p.m-----   p.m-


1------------------------------------------------------------------------|
2------------------------------------------------------------------------|
3------------------------------------------------------------------------|
4-------------------------------------8--------5--------8--------9----11-|
5-------------------------------------x--------x--------x--------x-----x-|
6---0---0---0---0---6--0--0--3--0--0--6--0--0--3--0--0--6--0--0--7--0--9-|

 p.m--------------------------------     -----    -----    -----    --


1------------|
2------------|
3------------|
4------------|
5------------|
6--0--0--0--0|

--------------

after that play the one that started at 2:49 again
with the words "tear off your face" and " this death your fate"

(3:18)

1--------------------------------------------------------------------------|
2---------------------------------------------------8-10-7--------11-13-15-|
3-----------------9-----10\9\8-----8/9---14---14/15--------10-8-10---------|
4----5------8-----x------x---------x------x----x---------------------------|
5----x------x-----7----- 8\7\6-----6/7---12---12/13------------------------|
6----3------6--------------------------------------------------------------|

1------------------------------13-15-13-11------11-12---|
2-11-----11--13-15-13-11----11------------------------11|
3----13-------------------x-----------------------------|
4-------------------------------------------------------|
5-------------------------------------------------------|
6-------------------------------------------------------|


outro(4:29)

1-----------------------------------------------------------------|
2-----------------------------------------------------------------|
3-----------------------------------------------------------------|        IF YOU WANT SOLO EMAIL
4-------------------------------------------   ME AT rockxstar78--|hotmail.com
5-----------------------------------------------------------------|          :)
6--0---6---6---0---5---5---2---0---6---6---9----------------------|
Suggest correction
What's this?
You can suggest a correction to this tab. Community and Mods will review your correction and vote to approve or reject it.
comments
print report bad tab
guest
You may want to rate the tab now too:
select rating
Please do not post tabs as comments. Select "correction" instead!