Oops, an error
Loading. Please wait.

A Skull Full Of Maggots Tab

version 4
version 4

Whole song

Interactive

1,112 views 1 this week
2 commentsread comments
1 2 3 4 5
1 last vote to show rating
add to favorites
launch autoscroll
font size
0
reset
how to read this tab
guitar tuner
Autoscroll
slow
fast
+/-
esc
set tempo
stop
Help us to improve Ultimate-Guitar.com Take our survey!
×
Cannibal Corpse
1989 Demo
A Skull Full of Maggots

.  - palm mute
\  - slide down to
/  - slide up to
h  - hammer on
p  - pull off
t  - tap
ph - pinch harmonic
~  - vibrato
b  - bend
tr - trill
*  - comment
 
Tuning: E A D G B E



Figure 1 x8 (* Left guitar starts on third time)
|---------------------------------|
|---------------------------------|
|---------------------------------|
|---------------------------------|
|-7---6---5---4---6---5---4---3---|
|-5-0-4-0-3-0-2-0-4-0-3-0-2-0-1-0-|
  . . . . . . . . . . . . . . . .



Figure 2 x2 (* The three chords at the beginning are tremelo picked)
|--------------------------------|
|--------------------------------|
|--------------------------------|
|-*--*--*---------8-8------------|
|-7--8--7-----7-7----------------|
|-5--6--5--7---------------------|

Play Figure 1 x4

Figure 3 x4
|-------------------------------------------------------------------|
|-------------------------------------------------------------------|
|-------------------------------------------------------------------|
|-9/10-----9/10-----9/10----------9/10-----9/10---------------------|
|-7/8-0000-7/8-0000-7/8-0000-888--7/8-0000-7/8-0000-7---6---5---4---|
|----------------------------666--------------------5-0-4-0-3-0-2-0-|
                                                    . . . . . . . .
(* Left guitar plays this on first time)
|-------------------------------------------------------------------|
|-------------------------------------------------------------------|
|-------------------------------------------------------------------|
|-9/10----------------------------9/10------------------------------|
|-7/8------------------------888--7/8---------------7---6---5---4---|
|----------------------------666--------------------5-0-4-0-3-0-2-0-|
                                                    . . . . . . . .



Figure 4 x2     
|----------------------------------------------|
|----------------------------------------------|
|----------------------------------------------|
|-7------7------7--------7------7--------------|
|-5-0000-5-0000-5-6-555--5-0000-5-0000-6-5-888-|
|-----------------4-333----------------4-3-666-|

Play Figure 3 x2

Figure 5 x3
|---------------------------------|
|---------------------------------|
|---------------------------------|
|---------------------------------|
|-6---5---4---3---7---6---5---4---|
|-4-0-3-0-2-0-1-0-5-0-4-0-3-0-2-0-|
  . . . . . . . . . . . . . . . . 



Figure 6A x1
|------------------------------------------------------------------
|------------------------------------------------------------------
|------------------------------------------------------------------
|------------------------------------------------------------------
|-6-5-4--3------------------------6-5-4--2-------------------------
|-4-3-2--1------------------------4-3-2--0-------------------------

------------------------------------------------------------------|
------------------------------------------------------------------|
------------------------------------------------------------------|
------------------------------------------------------------------|
--6-5-4--3--------------------------------------------------------|
--4-3-2--1--------------------------------------------------------|



Figure 6B x4
|-----------------------------------------------------------------|
|-----------------------------------------------------------------|
|-----------------------------------------------------------------|
|-----------------------------------------------------------------|
|-6-5-4---------------------------6-5-4---------------------------|
|-4-3-2--000000000000000000000000-4-3-2--111111111111111111111111-|



Figure 7 x1 (* Let the last chord ring)
|-----------------------------------------------------------------|
|-----------------------------------------------------------------|
|-----------------------------------------------------------------|
|-----------------------------------------------------------------|
|-6-5-4--2--------------------------------------------------------|
|-4-3-2--0--------------------------------------------------------|

Play Figure 1 x2

Figure 8 x4
|---------------------------------------------------------|
|---------------------------------------------------------|
|---------------------------------------------------------|
|---------9---------------9---------------9---------------|
|-8-8-8-8-7---------------7---------------7---------------|
|-6-6-6-6---7-8-10-7-8-10---7-8-10-7-8-10---7-8-10-7-8-10-|
            . . .  . . .    . . .  . . .    . . .  . . .



Figure 9 x1
|-----------|
|-----------|
|-----------|
|---------9-|
|-8-8-8-8-7-|
|-6-6-6-6---|

DONE!
Suggest correction
Give kudos to tab author, rate the tab!
1 2 3 4 5
comments
print report bad tab
2 comments total.
0 reply
deathmetallife5 573 Dec 23, 2012 03:07 PM

Not bad tab, all of the old Cannibal Corpse songs are in D# Standard or Eb.

0 reply
Morbid Corpse 395 Dec 24, 2012 03:13 PM

This is from their 1989 demo which is in standard tuning. It's not the version from Eaten Back to Life.

guest
You may want to rate the tab now too:
select rating
Wanna post a correction for this tab? Suggest correction