Oops, an error
Loading. Please wait.

A Skull Full Of Maggots Tab

version 5
version 5

Whole song

Interactive

396 views 9 this week
no commentswrite comment
1 2 3 4 5
excellent!
x 1
add to favorites
launch autoscroll
font size
0
reset
how to read this tab
guitar tuner
Tab Pro tools
  • play this tab
  • loop segment
  • change instrument
  • show fretboard
  • metronome
Autoscroll
slow
fast
+/-
esc
set tempo
stop
Contributor
Cannibal Corpse
Eaten Back To Life
A Skull Full of Maggots

.  - palm mute
\  - slide down to
/  - slide up to
h  - hammer on
p  - pull off
t  - tap
ph - pinch harmonic
~  - vibrato
b  - bend
r  - release bend
tr - trill
x  - mute
*  - comment

 
Tuning: Eb Ab Db Gb Bb Eb

Guitar I - Bob Rusay
Guitar II - Jack Owen


------------------------------------
I've already tabbed this song but my
previous tab was the demo version, and
not as good, so here you go.
------------------------------------



Figure 1 x8 
|---------------------------------|
|---------------------------------|
|---------------------------------|* Guitar II starts
|---------------------------------|  on third time
|-7---6---5---4---6---5---4---3---|
|-5-0-4-0-3-0-2-0-4-0-3-0-2-0-1-0-|
  . . . . . . . . . . . . . . . .



Figure 2 x2 
|--------------------------------------------------|
|--------------------------------------------------|
|--------------------------------------------------|
|----------------------------------------------8-8-|
|-7777777777777777-8888888888888888------7-7-------|
|-5555555555555555-6666666666666666--7-------------|



Repeat Figure 1 x4



Figure 3 x4
|-------------------------------------------------------------------|
|-------------------------------------------------------------------|
|-------------------------------------------------------------------|
|-9/10-----9/10-----9/10----------9/10-----9/10---------------------|
|-7/8-0000-7/8-0000-7/8-0000-888--7/8-0000-7/8-0000-7---6---5---4---|
|----------------------------666--------------------5-0-4-0-3-0-2-0-|
      ....     ....     ....          ....     .... . . . . . . . .
                                                   
(* Guitar II plays this on first time)
|-------------------------------------------------------------------|
|-------------------------------------------------------------------|
|-------------------------------------------------------------------|
|-9/10----------------------------9/10------------------------------|
|-7/8------------------------888--7/8---------------7---6---5---4---|
|----------------------------666--------------------5-0-4-0-3-0-2-0-|
                                                    . . . . . . . .



Figure 4 x2     
|----------------------------------------------|
|----------------------------------------------|
|----------------------------------------------|
|-7------7------7--------7------7--------------|
|-5-0000-5-0000-5-6-555--5-0000-5-0000-6-5-888-|
|-----------------4-333----------------4-3-666-|
    ....   ....            ....   ....



Repeat Figure 3 x2



Figure 5 x3
|---------------------------------|
|---------------------------------|
|---------------------------------|
|---------------------------------|
|-6---5---4---3---7---6---5---4---|
|-4-0-3-0-2-0-1-0-5-0-4-0-3-0-2-0-|
  . . . . . . . . . . . . . . . . 



Figure 6A x1
|------------------------------------------------------------------
|------------------------------------------------------------------
|------------------------------------------------------------------
|------------------------------------------------------------------
|-6-5-4--3------------------------6-5-4--2-------------------------
|-4-3-2--1------------------------4-3-2--0-------------------------

------------------------------------------------------------------|
------------------------------------------------------------------|
------------------------------------------------------------------|
------------------------------------------------------------------|
--6-5-4--3--------------------------------------------------------|
--4-3-2--1--------------------------------------------------------|



Figure 6B x4
|-----------------------------------------------------------------|
|-----------------------------------------------------------------|
|-----------------------------------------------------------------|
|-----------------------------------------------------------------|
|-6-5-4---------------------------6-5-4---------------------------|
|-4-3-2--000000000000000000000000-4-3-2--111111111111111111111111-|



Figure 7 x1 
|-----------------------------------------------------------------|
|-----------------------------------------------------------------|
|-----------------------------------------------------------------|
|-----------------------------------------------------------------|
|-6-5-4--2-------------2-2-2-2-2-2-2-2-2--2-----------------------|
|-4-3-2--0-------------0-0-0-0-0-0-0-0-0--0-----------------------|
                       . . . . . . . . .


Repeat Figure 1 x2



Figure 8 x4
|---------------------------------------------------------|
|---------------------------------------------------------|
|---------------------------------------------------------|
|---------9---------------9---------------9---------------|
|-8-8-8-8-7---------------7---------------7---------------|
|-6-6-6-6---7-8-10-7-8-10---7-8-10-7-8-10---7-8-10-7-8-10-|
            . . .  . . .    . . .  . . .    . . .  . . .



Figure 9 x1
|-----------|
|-----------|
|-----------|
|---------9-|
|-8-8-8-8-7-|
|-6-6-6-6---|

DONE!
comments
We did not receive enough feedback on this tab! Please rate:
print report bad tab
1 2 3 4 5
I want to post or [tab]
guest
You may want to rate the tab now too:
select rating
Please do not post tabs as comments. Select "correction" instead!