Oops, an error
Loading. Please wait.

Addicted To Vaginal Skin Tab

version 2
version 2

Whole song

Interactive

1,515 views 1 this week
no commentswrite comment
1 2 3 4 5
please rate
add to favorites
launch autoscroll
font size
0
reset
how to read this tab
guitar tuner
Tab Pro tools
  • play this tab
  • loop segment
  • change instrument
  • show fretboard
  • metronome
×
Best way to learn
"Addicted To Vaginal Skin"
Autoscroll
slow
fast
+/-
esc
set tempo
stop
Contributor
Difficulty
intermediate
Band:  Cannibal Corpse
Album: Tomb of the Mutilated
Song:  Addicted to Vaginal Skin
Transcribed By: The Great Southern Trendkill
Email:          fromadyingfetus@aol.com
  
Legend:
.  - palm mute           /  - slide up to
\  - slide down to       ~  - vibrato
h  - hammer on           b  - Bend
p  - pull off            Suffixes for bend
t  - tap                 f  - full bend    h - half bend
ph - pinched harmonic    q  - quarter bend t - tap bend
*  - see comment         ^  - Hold bend    r release bend
x  - Stuccatto           ~  - vibrato bend
,  - slight palm mute    () - ghost note, sustained note
"  - tremolo note        <> - Trill

Tuning: Eb Bb Gb Db Bb Eb  

 Riff 1
|---------------------|---------------------|
|---------------------|---------------------|
|---------------------|---------------------|
|-2---1-----2---1-----|-2---1-----2---1-----|
|---1---3-----1---2---|---1-1-3-----1-1-2---|
|---------2---------1-|---------2---------1-|
    .   . .   .   . .     .   . .   .   . .

 Riff 2
|-----------------------------------------------------------------|
|-----------------------------------------------------------------|
|-----------------------------------------------------------------|
|-----------------------------------------------------------------|
|-----------------------------------------------------------------|
|-000-000-000-000-4-5-7-0-3-4-6-0-2-3-5-0-1-2-4-2-000-000-000-000-|
  ... ... ... ... . . . . . . . . . . . . . . . . ... ... ... ...

 Riff 3
|-----------------------------------------------------------|
|-----------------------------------------------------------|
|-----------------------------------------------------------|
|-----------------------------------------------------------|
|-----------------------------------------------------------|
|-1-1-1-1-4-1-1-1-1-1-1-1-4-1-1-1-1-1-1-1-4-1-1-1-1-0-0-0-0-|
  . . . . . . . . . . . . . . . . . . . . . . . . . . . . .

|-------------------------------------------------------------------|
|-------------------------------------------------------------------|
|-------------------------------------------------------------------|
|-------------------------------------------------------------------|
|-------------------------------------------------------------------|
|-1-1-1-1-4-1-1-1-1-1-1-1-4-1-1-1-1-1-1-1-4-1-1-1-1-0-0-1-1-0-0-1-1-|
 . . . . . . . . . . . . . . . . . . . . . . . . . . . . . . . . .

|-----------------------------------------------------------|
|-----------------------------------------------------------|
|-----------------------------------------------------------|
|-----------------------------------------------------------|
|-----------------------------------------------------------|
|-1-1-1-1-4-1-1-1-1-1-1-1-4-1-1-1-1-1-1-1-4-1-1-1-1-0-0-0-0-|
 . . . . . . . . . . . . . . . . . . . . . . . . . . . . .

|-------------------------------------------------------------------|
|-------------------------------------------------------------------|
|-------------------------------------------------------------------|
|-------------------------------------------------------------------|
|-------------------------------------------------------------------|
|-1-1-1-1-4-1-1-1-1-1-1-1-4-1-1-1-1-1-1-1-4-1-1-1-1-0-0-1-1-0-0-1-1-|
 . . . . . . . . . . . . . . . . . . . . . . . . . . . . . . . . .

 Repeat Riff 2

|-----------------------------------------------------------|
|-----------------------------------------------------------|
|-----------------------------------------------------------|
|-----------------------------------------------------------|
|-----------------------------------------------------------|
|-1-1-1-1-4-1-1-1-1-1-1-1-4-1-1-1-1-1-1-1-4-1-1-1-1-0-0-0-0-|
 . . . . . . . . . . . . . . . . . . . . . . . . . . . . .

|-----------------------------------------------------------------|
|-----------------------------------------------------------------|
|-----------------------------------------------------------------|
|-----------------------------------------------------------------|
|---------------------------------------------------------------2-|
|-1-1-1-1-4-1-1-1-1-1-1-1-4-1-1-1-1-1-1-1-4-1-1-1-1-0-0-1-1-0-0-0-|
 . . . . . . . . . . . . . . . . . . . . . . . . . . . . . . . .

 Bass Passage...

 Riff 4
|-------------------------------------|
|-------------------------------------|
|-------------------------------------|
|--------------------------------8h10-|
|-77777777--------------7h9-7h10------|
|----------66666666-6h9---------------|

 Pause...

 Repeat Riff 4
 Repeat Riff 2
 Repeat Riff 3

|-----------------------------------------------------------------|
|-----------------------------------------------------------------|
|-----------------------------------------------------------------|
|-----------------------------------------------------------------|
|-----------------------------------------------------------------|
|-000-000-000-000-4-5-7-0-3-4-6-0-2-3-5-0-1-2-4-2-000-000-000-000-|
  ... ... ... ... . . . . . . . . . . . . . . . . ... ... ... ...

                                ________________Passage___________________
|-------------------------------------------------------------------------|
|-------------------------------------------------------------------------|
|-------------------------------------------------------------------------|
|-------------------------------------------------------------------------|
|-------------------------------------2---------2---------2---------2-----|
|-4-5-7-0-3-4-6-0-2-3-5-0-1-2-4-2-220-0-0-0-220-0-0-0-220-0-0-0-220-0-0-0-|
  . . . . . . . . . . . . . . . . ..  . . . ..  . ..  ..  . . . ..  . . .

 Repeat Riff 1

 Riff 5
|-----------------------------------------------------------------|
|-----------------------------------------------------------------|
|-----------------------------------------------------------------|
|---------------------2---1---------------------------------------|
|-3---------------------1---3-----------------3-------------------|
|---2-0-0-0-0-0-0-0-0---------0-0-0-0-0-0-0-0---2-0-0-0-0-0-0-0-0-|
  . .                   .   .                 . .
|---------------------------------------------------------------------|
|---------------------------------------------------------------------|
|---------------------------------------------------------------------|
|-2---1---------------------------------------2---1-------------------|
|---1---3-1-1-1-1-1-1-1-1-3---------------------1---3-----------------|
|---------------------------2-0-0-0-0-0-0-0-0---------0-0-0-0-0-0-0-0-|
   .   .                 . .                   .   .
|-----------------------------------------------------------------|
|-----------------------------------------------------------------|
|-----------------------------------------------------------------|
|---------------------2---1----------------------------------8h10-|
|-3---------------------1---3-77777777--------------7h9-7h10------|
|---2-0-0-0-0-0-0-0-0------------------66666666-6h9---------------|
  . .                 .     .

 Repeat Riff 4

|-----------------------------------------|
|-----------------------------------------|
|-----------------------------------------|
|-----------------------------------------|
|-----2---------2---------2---------2-----|
|-220-0-0-0-220-0-0-0-220-0-0-0-220-0-0-0-|
  ..  . . . ..  . . . ..  . . . ..  . . .

 Solo: Rusay Owen

 Solo Rhythm:

 Riff 6
|---------------------------------|
|---------------------------------|
|---------------------------------|
|---------------------------------|
|-2-2-------------3-3-----1-1-1-1-|
|-----1-1-0-0-0-0-----2-2---------|
  . . . . . . . . . . . . . . . .

 Riff 7
|------------------------------------------------------------|
|------------------------------------------------------------|
|------------------------------------------------------------|
|-10h7/6-----------------------------------------------------|
|--------10h7/6-----------------9h7h6------------------------|
|---------------0-0-0-0-0-0-0-0-------10h8h7-6-6-6-6-6-6-6-6-|


|-------------------------------------|---|
|-------------------------------------|---|
|-------------------------------------|---|
|--------------------------------8h10-|---|
|-77777777--------------7h9-7h10------|-2-|
|----------66666666-6h9---------------|-0-|
                                        .
End.
comments
We did not receive enough feedback on this tab! Please rate:
print report bad tab
1 2 3 4 5
I want to post or [tab]
guest
You may want to rate the tab now too:
select rating
Please do not post tabs as comments. Select "correction" instead!