Oops, an error
Loading. Please wait.

Addicted To Vaginal Skin Tab

version 4
version 4

Whole song

Interactive

771 views 1 this week
no commentswrite comment
1 2 3 4 5
please rate
add to favorites
launch autoscroll
font size
0
reset
how to read this tab
guitar tuner
Tab Pro tools
  • play this tab
  • loop segment
  • change instrument
  • show fretboard
  • metronome
×
Best way to learn
"Addicted To Vaginal Skin"
Autoscroll
slow
fast
+/-
esc
set tempo
stop
Contributor
Cannibal Corpse
Tomb Of The Mutilated
Addicted To Vaginal Skin

.  - palm mute
\  - slide down to
/  - slide up to
h  - hammer on
p  - pull off
t  - tap
ph - pinch harmonic
~  - vibrato
b  - bend
r  - release bend
tr - trill
x  - mute
*  - comment

Tuning: Eb Ab Db Gb Bb Eb


-------------------------------------
* This was the first song I heard by
  Cannibal Corpse! I recently watched
  a live video and you could see them
  playing close up! So here you go!
-------------------------------------



Figure 1A x8     Figure 1B x4
|-----------|    |-----------|
|-----------|    |-----------|
|-----------|    |-----------|
|-2---1-----|    |-2---1-----|
|---1---3---|    |---1-1-3---|
|---------2-|    |---------2-|
    .   . .          .   . .



Figure 2 x4
|-------------------------------------|
|-------------------------------------|
|-------------------------------------|
|-------------------------------------|
|-------------------------------------|
|-000-000-000-000-4560-3450-2340-1230-|
  ... ... ... ... .... .... .... ....



Figure 3A x4
|-----------------------------------------|
|-----------------------------------------|
|-----------------------------------------|
|-----------------------------------------|
|-----------------------------------------|
|-2111-4111-2111-4111-2111-4111-2100-1000-|
  .... .... .... .... .... .... .... ....



Repeat Figure 2  x4
Repeat Figure 3A x1



Figure 3B x1
|-------------------------------------------|* After playing this
|-------------------------------------------|  pause for the bass solo
|-------------------------------------------|
|-------------------------------------------|
|-----------------------------------------2-|
|-2111-4111-2111-4111-2111-4111-2100-1000-0-|
  .... .... .... .... .... .... .... ....



Figure 4 x8
|-------------------------------------|* Pause after 6th time
|-------------------------------------|  for a couple of seconds
|-------------------------------------|
|--------------------------------7h10-|
|-77777777--------------6h9-7h10------|
|----------66666666-6h9---------------|



Repeat Figure 2  x2
Repeat Figure 3A x2
Repeat Figure 2  x2



Figure 5 x4
|-----------|
|-----------|
|-----------|
|-----------|
|-222-2-2-2-|
|-000-0-0-0-|
  ... . . .



Repeat Figure 1A x8
Repeat Figure 1B x8



Figure 6A x1
|-----------------------------------|
|-----------------------------------|
|-----------------------------------|
|--------------2---1----------------|
|-3--------------1---3--------------|
|---2-00000000---------000000000000-|

------------------------------------|
------------------------------------|
------------------------------------|
---------------2---1----------------|
--3--------------1---3-111111111111-|
----2-00000000----------------------|



Figure 6B x1
|-----------------------------------|
|-----------------------------------|
|-----------------------------------|
|--------------2---1----------------|
|-3--------------1---3--------------|
|---2-00000000---------000000000000-|

------------------------------------|
------------------------------------|
------------------------------------|
---------------2---1----------------|
--3--------------1---3--------------|
----2-00000000----------------------|



Repeat Figure 4 x7



Figure 7 x1
|-----------------|
|-----------------|
|-----------------|
|-----------------|
|-----------------|
|-000-000-000-000-|



Repeat Figure 5 x4



Figure 8 x8
|-----------------------|
|-----------------------|
|-----------------------|
|-----------------------|
|-33---------33----1111-|
|----22-0000----22------|



Figure 9 x4
|---------------------------------------------|
|---------------------------------------------|
|---------------------------------------------|
|-10p7p0--------------------------------------|
|--------10p7p0----------9p6p0----------------|
|---------------00000000-------9p6p0-66666666-|



Repeat Figure 4 x4 (Played twice as fast!)



End with this
|---|
|---|
|---|
|---|
|-2-|
|-0-|

DONE!
comments
We did not receive enough feedback on this tab! Please rate:
print report bad tab
1 2 3 4 5
I want to post or [tab]
guest
You may want to rate the tab now too:
select rating
Please do not post tabs as comments. Select "correction" instead!