Oops, an error
Loading. Please wait.

Beyond The Cemetery Tab

version 1
version 1

Intro

Whole song

Interactive

202 views 1 this week
no commentswrite comment
1 2 3 4 5
please rate
add to favorites
launch autoscroll
font size
0
reset
how to read this tab
guitar tuner
Autoscroll
slow
fast
+/-
esc
set tempo
stop
Help us to improve Ultimate-Guitar.com Take our survey!
×
Author
Difficulty
Tuning
novice
B E A D F# B
|------------------------------------|
|------------------------------------|
|------------------------------------|
|------------------------------------|
|-33333333-4p3-6p4-0000-6666-9p7-6---|
|------------------------------------|

Riff B x4                                     1-3 only
|--------------------------------------------|------------|
|--------------------------------------------|------------|
|--------------------------------------------|------------|
|--------------------------------------------|------------|
|--------------------------------------------|------------|
|-6-3-0-6-3-0-6-3-66666666---2-1-0-2-1-0-2-0-|-33333333---|
  . . . . . . . .            . . . . . . . .

Riff C x11
|-----------------------------------------------|
|-----------------------------------------------|
|-----------------------------------------------|
|-----------------------------------------------|
|-----------------------------------------6--5--|
|-0-1-3-0-1-3-0-1-4-0-1-4-0-1-3-0-1-3-1-0-4--3--|
  . . . . . . . . . . . . . . . . . . . . .  .

Riff B x2 (full riff)
Riff C x4

Segment end
|-----------|
|-----------|
|-----------|
|-2---------|
|-2---------|
|-0---------|

Riff D x4
|---------------|
|---------------|
|---------------|
|---------------|
|---------------|
|-1~-4~-2~-3~---|

Riff E x4                           |1, 3        |2           |4
|-----------------------------------|------------|------------|------------|
|-----------------------------------|------------|------------|------------|
|-----------------------------------|------------|------------|------------|
|-----------------------------------|------------|------------|------------|
|-2222222222-0h2h5-3333333333-0h3h6-|-2"---------|------2"-3"-|------6"----|
|-----------------------------------|------1"-2"-|-1"---------|-1"------2"-|

Riff D x4
Riff A x4

Riff F x4
|-------------------------------|
|-------------------------------|
|-------------------------ph----|
|-------------------------1-----|
|-----2-1-----2-4-----2-1-------|
|-111-----111-----111-------2---|
  ,,, . . ,,, . . ,,, . .   .
Suggest correction
Give kudos to tab author, rate the tab!
1 2 3 4 5
comments
print report bad tab
guest
You may want to rate the tab now too:
select rating
Please do not post tabs as comments. Select "correction" instead!