Oops, an error
Loading. Please wait.

Beyond The Cemetery Tab

version 2
version 2

Whole song

Interactive

682 views 3 this week
no commentswrite comment
1 2 3 4 5
3 more votes to show rating
add to favorites
launch autoscroll
font size
0
reset
how to read this tab
guitar tuner
Autoscroll
slow
fast
+/-
esc
set tempo
stop
Help us to improve Ultimate-Guitar.com Take our survey!
×
Cannibal Corpse
Tomb of the Mutilated
Beyond the Cemetery

Copyright (c)  Metal Blade Records 1992
Version 1.4 - 23.02.2010

Transcribed By: Yaniv Dekel
Email:          lickywebster@yahoo.com


.  - palm mute           /  - slide up to
\  - slide down to       ~  - vibrato
h  - hammer on           b  - Bend
p  - pull off            Suffixes for bend
t  - tap                 f  - full bend    h - half bend
ph - pinched harmonic    q  - quarter bend t - tap bend
*  - see comment         ^  - Hold bend    r release bend
x  - Stuccatto           ~  - vibrato bend
,  - slight palm mute    () - ghost note, sustained note
"  - tremolo note        <> - Trill

Tuning is D#


* NOTE
* The PH on riff F is more of a semi harmonic
* and you cant always hear it, but it's there.


Riff A x16
|------------------------------------|
|------------------------------------|
|------------------------------------|
|------------------------------------|
|-33333333-4p3-6p4-0000-6666-9p7-6---|
|------------------------------------|

Riff B x4                                     1-3 only
|--------------------------------------------|------------|
|--------------------------------------------|------------|
|--------------------------------------------|------------|
|--------------------------------------------|------------|
|--------------------------------------------|------------|
|-6-3-0-6-3-0-6-3-66666666---2-1-0-2-1-0-2-0-|-33333333---|
  . . . . . . . .            . . . . . . . .

Riff C x11
|-----------------------------------------------|
|-----------------------------------------------|
|-----------------------------------------------|
|-----------------------------------------------|
|-----------------------------------------6--5--|
|-0-1-3-0-1-3-0-1-4-0-1-4-0-1-3-0-1-3-1-0-4--3--|
  . . . . . . . . . . . . . . . . . . . . .  .

Riff B x2 (full riff)
Riff C x4

Segment end
|-----------|
|-----------|
|-----------|
|-2---------|
|-2---------|
|-0---------|

Riff D x4
|---------------|
|---------------|
|---------------|
|---------------|
|---------------|
|-1~-4~-2~-3~---|

Riff E x4                           |1, 3        |2           |4
|-----------------------------------|------------|------------|------------|
|-----------------------------------|------------|------------|------------|
|-----------------------------------|------------|------------|------------|
|-----------------------------------|------------|------------|------------|
|-2222222222-0h2h5-3333333333-0h3h6-|-2"---------|------2"-3"-|------6"----|
|-----------------------------------|------1"-2"-|-1"---------|-1"------2"-|

Riff D x4
Riff A x4

Riff F x4
|-------------------------------|
|-------------------------------|
|-------------------------ph----|
|-------------------------1-----|
|-----2-1-----2-4-----2-1-------|
|-111-----111-----111-------2---|
  ,,, . . ,,, . . ,,, . .   .

|L
|-------------------------------|
|-------------------------------|
|-------------------------------|
|-------------------------1-----|
|-----2-1-----2-4-----2-1-1-----|====
|-111-----111-----111-------2---|   =
| ,,, . . ,,, . . ,,, . .   .       =
|                                   = x4
|R                                  =
|-------------------------------|   =
|-------------------------------|====
|-------------------------ph----|
|-------------------------1-----|
|-----2-1-----2-4-----2-1-------|
|-111-----111-----111-------2---|
  ,,, . . ,,, . . ,,, . .   .

Riff G x4 (@=10)
|-----------------------------------|
|-----------------------------------|
|-----------------------------------|
|-----------------7-----6-----5-----|
|-----8-7-----8-@-5-6-0-4-5-0-3-4---|
|-000-6-5-000-6-8---4-0---3-0---2---|
  ,,, . . ,,, . . . . . . . . . .

Riff A x4
Riff E x4
Riff C x9
Riff G x4
Riff F x4


|L
|-------------------------------|
|-------------------------------|
|-------------------------------|
|-------------------------1-----|
|-----2-1-----2-4-----2-1-1-----|====
|-111-----111-----111-------2---|   =
| ,,, . . ,,, . . ,,, . .   .       =
|                                   = x4
|R                                  =
|-------------------------------|   =
|-------------------------------|====
|-------------------------ph----|
|-------------------------1-----|
|-----2-1-----2-4-----2-1-------|
|-111-----111-----111-------2---|
  ,,, . . ,,, . . ,,, . .   .

Riff F x4


|L
|-------------------------------|
|-------------------------------|
|-------------------------ph----|
|-------------------------1-----|
|-------------------------------|====
|-111-1-1-111-1-1-111-1-0---2---|   =
| ,,, . . ,,, . . ,,, . .   .       =
|                                   = x4
|R                                  =
|-------------------------------|   =
|-------------------------------|====
|-------------------------ph----|
|-------------------------1-----|
|-----2-1-----2-4-----2-1-------|
|-111-----111-----111-------2---|
  ,,, . . ,,, . . ,,, . .   .

|L
|-------------------------------|
|-------------------------------|
|-------------------------------|
|-------------------------------|
|-------------------------------|====
|-111-1-1-111-1-1-111-1-1-1-1---|   =
| ,,, . . ,,, . . ,,, . . . .       =
|                                   = until fadeout
|R                                  =
|-------------------------------|   =
|-------------------------------|====
|-------------------------ph----|
|-------------------------1-----|
|-----2-1-----2-4-----2-1-------|
|-111-----111-----111-------2---|
  ,,, . . ,,, . . ,,, . .   .


END
Suggest correction
Give kudos to tab author, rate the tab!
1 2 3 4 5
comments
print report bad tab
guest
You may want to rate the tab now too:
select rating
Wanna post a correction for this tab? Suggest correction