Oops, an error
Loading. Please wait.

Blowtorch Slaughter Tab

version 2
version 2

Whole song

Interactive

301 views 3 this week
no commentswrite comment
1 2 3 4 5
please rate
add to favorites
launch autoscroll
font size
0
reset
how to read this tab
guitar tuner
Tab Pro tools
  • play this tab
  • loop segment
  • change instrument
  • show fretboard
  • metronome
Autoscroll
slow
fast
+/-
esc
set tempo
stop
Contributor
Band:  Cannibal Corpse
Album: Bloodthirst
Song:  Blowtorch Slaughter


.   - palm mute           /  - slide up to
\   - slide down to       ~  - vibrato
h   - hammer on           b  - Bend
p   - pull off            Suffixes for bend
t   - tap                 f  - full bend    h - half bend
ph  - pinched harmonic    q  - quarter bend t - tap bend
*   - see comment         ^  - Hold bend    r release bend
x   - Stuccatto           ~  - vibrato bend
,   - slight palm mute    () - ghost note, sustained note
"   - tremolo note        <> - Trill
chnl- Channel

Thanks to Roboblob for repairs!!!





Tuning (Low to High) Bb Eb Ab Db Gb Bb Eb



Intro Riff
0:00
Left Chnl
|--------------------------------------------|
|--------------------------------------------|
|--------------------------------------------|
|--------------------------------------------|
|8-7-444444-8-7-444444-8-7-444444-8-7-444444-|
|6-5--------6-5--------6-5--------6-5--------|
|--------------------------------------------|
 . .        . .        . .        . .


Intro Riff
0:00
Right Chnl
|--------------------------------------------|
|--------------------------------------------|
|--------------------------------------------|
|--------------------------555555-----888888-|
|8-7-444444-8-7-777777-8-7--------8-7--------|
|6-5--------6-5--------6-5--------6-5--------|
|--------------------------------------------|
 . .        . .        . .        . .


Rhythm Fig. 1
0:03
|-----------------------------------------------------------------------|
|-----------------------------------------------------------------------|
|-----------------------------------------------------------------------|
|---------------------------4/5-----------------------------------------|
|8-7-44444444--8-7------5\4-2/3-5/6--1111111144112211441122114411221111-|
|6-5-----------6-5-0000-3\2-----3/4-------------------------------------|
|-----------------------------------------------------------------------|
 . .               ....


0:07
---------------------------------------------------------------------------------------|
---------------------------------------------------------------------------------------|
---------------------------------------------------------------------------------------|
----------------------4/5-------------2---------2-----2------------------------4/5-----|
44444444-8-7------5\4-2/3-5/6---------2---------2-----2--44444444-8-7------5\4-2/3-5/6-|
---------6-5-0000-3\2-----3/4-------------------------------------6-5-0000-3\2-----3/4-|
------------------------------22222222--22222222--2222---------------------------------|
             ....             ........  ........  ....                ....


0:12
-----------------------------------------------------------------|
-----------------------------------------------------------------|
-----------------------------------------------------------------|
----------------------222266665555-----------------------4/5-----|
1111111144112211441111-------------44444444-8-7------5\4-2/3-5/6-|
--------------------------------------------6-5-0000-3\2-----3/4-|
-----------------------------------------------------------------|
                                                ....

0:16
-------------------------------------------------------------------------------|
-------------------------------------------------------------------------------|
-------------------------------------------------------------------------------|
--------2--------------------------2--------------------------2----------------|
--------2----------6-5-------------2----------6-5-------------2----------6-5---|
-------------------4-3-7----------------------4-3-7----------------------4-3-7-|
22222222--22222222-----5---22222222--22222222-----5---22222222--22222222-----5-|
........  ........         ........  ........         ........  ........


0:21
-------------------------|
-------------------------|
-------------------------|
--------2----------------|
--------2----------6-5---|
-------------------4-3-7-|
22222222--22222222-----5-|
........  ........



Riff 2
4 times
0:23, 0:38, 2:11
|-----------------------------|
|-----------------------------|
|-----------------------------|
|-----------------------------|
|-----------------------------|
|666666666666-----------------|
|-------------2-5--3-6--4-7/8-|



Riff 3
8 times
0:30                       End with
|---------------------------------|
|---------------------------------|
|---------------------------------|
|---------------------------------|
|---------------------------------|
|---------------------------------|
|2h5p2-3h6p3-2h5p2-5h8p5-------55-|
                               ..



Riff 2 Again




Riff 3a  4 Times
0:46,2:04
|-------------------------|
|-------------------------|
|-------------------------|
|--------2----------------|
|--------2----------6-5---|
|-------------------4-3-7-|
|22222222--22222222-----5-|
 ........  ........



Riff 4
0:54
|--------------------------------------------------------------|
|--------------------------------------------------------------|
|--------------------------------------------------------------|
|--------------------------------------------------------------|
|--------------------------------------------------------------|
|4-5-7---------------------------------------------------------|
|2-3-5-3-4-6-4-6-8-6h8-9"--3-4-6-4-6-8-6h8-9"--3-4-6-4-6-8-6h8-|
       . . . . . .         . . . . . .         . . . . . .


1:06
-----------------------------------------------------------------|
-----------------------------------------------------------------|
-----------------------------------------------------------------|
-----------------------------------------------------------------|
-----------------------------------------------------------------|
2-2-2-2-2-2-2-2-2-2-2-2-2-2-2-2-2-2-2-2-2-2-2-2------------------|
0-0-0-0-0-0-0-0-0-0-0-0-0-0-0-0-0-0-0-0-0-0-0-0--3-4-6-4-6-8-6h8-|
  . . . . . . . . . . . . . . . . . . . . . . .  . . . . . .


1:11
----------------------------------------------------------------------------------------|
----------------------------------------------------------------------------------------|
----------------------------------------------------------------------------------------|
----------------------------------------------------------------------------------------|
----------------------------------------------------------------------------------------|
2-2-2-2-2-2-2-2-2-2-2-2-2-2-2-2-2-2-2-2-2-2-2-2-----------------------------------------|
0-0-0-0-0-0-0-0-0-0-0-0-0-0-0-0-0-0-0-0-0-0-0-0--3-4-6-4-6-8-6h8-9"--3-4-6-4-6-8-6h8-9"-|
  . . . . . . . . . . . . . . . . . . . . . . .  . . . . . .         . . . . . .



Right Channel Fill
1:21
|-----------|
|-----------|
|-----------|
|-----------|
|-----------|
|-----------|
|9"-12"-15"-|


1:26
---------------------------------------------------------------------------------|
---------------------------------------------------------------------------------|
---------------------------------------------------------------------------------|
---------------------------------------------------------------------------------|
---------------------------------------------------------------------------------|
----------------2-2-2-2-2-2-2-2-2-2-2-2-2-2-2-2-2-2-2-2-2-2-2-2------------------|
3-4-6-4-6-8-6h8-0-0-0-0-0-0-0-0-0-0-0-0-0-0-0-0-0-0-0-0-0-0-0-0--3-4-6-4-6-8-6h8-|
. . . . . .       . . . . . . . . . . . . . . . . . . . . . . .  . . . . . .


Riff 5
4 times
1:30
|---------------------------------------|
|---------------------------------------|
|---------------------------------------|
|---------------------------------------|
|---------------------------------------|
|---------------------------------------|
|1077-7--966-6--855-5--744-4--6643-5532-|
 . .. .  ... .  ... .  ... .  .... ....


Riff 6
4 times
1:41
|--------------|
|--------------|
|--------------|
|--------------|
|--------------|
|4-5-7-3----ph-|
|2-3-5-1--1/6~-|
       .



Break 1
1:49
|-----------|
|-----------|
|-----------|
|-----------|
|-----6-5---|
|4-7--4-3-7-|
|2-5------5-|



Solo Rhythm
1:51
-------------------------------------------------------------------------------|
-------------------------------------------------------------------------------|
-------------------------------------------------------------------------------|
--------2--------------------------2--------------------------2----------------|
--------2----------6-5-------------2----------6-5-------------2----------6-5---|
-------------------4-3-7----------------------4-3-7----------------------4-3-7-|
22222222--22222222-----5---22222222--22222222-----5---22222222--22222222-----5-|
........  ........         ........  ........         ........  ........


1:57
--------------------------------------------------------------|
--------------------------------------------------------------|
--------------------------------------------------------------|
----------------------222266665555----------------------------|
1111111144112211441111-------------44444444774455447744554444-|
--------------------------------------------------------------|
--------------------------------------------------------------|


2:00
---------------------------------------------------------|
---------------------------------------------------------|
---------------------------------------------------------|
----------------------222266665555-----------------------|
1111111144112211441111-------------44444444-9/8--9/8-9/8-|
--------------------------------------------7/6--7/6-7/6-|
---------------------------------------------------------|




Riff 3a Again
Riff 2 Again




Riff 7
2:19
|----------------------------------------------------------------------|
|----------------------------------------------------------------------|
|----------------------------------------------------------------------|
|----------------------------------------------------------------------|
|4----4----4----4----4--4--4--4--4--4--4--4--4--4--4--4--4--4--4--4--4-|
|4----4----4----4----4--4--4--4--4--4--4--4--4--4--4--4--4--4--4--4--4-|
|2----2----2----2----2--2--2--2--2--2--2--2--2--2--2--2--2--2--2--2--2-|


E N D
comments
We did not receive enough feedback on this tab! Please rate:
print report bad tab
1 2 3 4 5
I want to post or [tab]
guest
You may want to rate the tab now too:
select rating
Please do not post tabs as comments. Select "correction" instead!