Oops, an error
Loading. Please wait.

Blunt Force Castration Tab

version 1
version 1

Whole song

Interactive

292 views 3 this week
no commentswrite comment
1 2 3 4 5
please rate
add to favorites
launch autoscroll
font size
0
reset
how to read this tab
guitar tuner
Autoscroll
slow
fast
+/-
esc
set tempo
stop
Help us to improve Ultimate-Guitar.com Take our survey!
×
Contributor
martinez_9 9,030

Tuning: A# D# G# C# F# A# D#


Riff1                       __________note*__________
|----------------------------------------------------|
|----------------------------------------------------|
|----------------------------------------------------|
|----------976----------976----6-----7----4----3-----|
|-5"...-568----5"...-568---------4-5--------------4--|
|---------------------------5"---------2"----2-------|
                            .    . .   .     .    .

|---------------------------------------------------------|
|---------------------------------------------------------|
|---------------------------8911--------------------------|
|----------976----------8911--------6-----7----4----3-----|
|-5"...-568----5"...-568--------------4-5--------------4--|
|--------------------------------5"---------2"----2-------|
                                 .    . .   .     .    .

Riff2
|-------------------------2x------------------------------|
|---------------------------------------------------------|
|-------------88-----------------------------88-----------|
|-88----77-------66-77----88----77----66--------66-77-----|
|----66----55----------66----66----55----44-----------66--|
|---------------------------------------------------------|
     ..    ..          ..    ..    ..    ..           ..

Riff3
|--------------|-----------------------------4x------------------------------|
|--------------|-------------------------------------------------------------|
|--------------|-------------------------------------------------------------|
|-7/6-10/9-7/6-|--------87-1110------98-10/9-7/6--------76-------98-10/9-7/6-|
|-5/4-8-/7-5/4-|-----98-65-9-8--1110-76-8-/7-5/4-----98-54-76-98-76-8-/7-5/4-|
|--------------|-0-0-76---------9-8--------------0-0-76----54-76-------------|
                 . . .. .. . . . . ..            . . .. .. .. .. ..


|-------------------------------------------------|
|-------------------------------------------------|
|-------------------------------------------------|
|--------87-1110------98-10/9-7/6-----------------|
|-----98-65-9-8--1110-76-8-/7-5/4-----98-78-76-98-|
|-0-0-76---------9-8--------------0-0-76-56-54-76-|
  . . .. .. . . . . ..            . . .. .. .. ..
Riff4
|------------------------------------4x---------------------------------------|
|-----------------------------------------------------------------------------|
|-----------------------------------------------------------------------------|
|------------1"-------1"-------3"-------------------1"-------1"-------3"------|
|---5"-2"-3"-------------4"-5"-------------5"-2"-3"-------------4"-5"---------|
|-0-------------2"-3"-------------7"6"5"4"-------------2"-3"-------------7"6"-|
  .

Repeat   note*
Repeat   Riff1
Repeat   Riff2
Repeat   Riff3
Repeat   Riff4
Repeat   note*

Riff5 (O'Brien solo)
                       Riff6
|---------4x----------|----------------------------------------------|
|---------------------|----------------------------------------------|
|---------------------|----6-----------------------------------------|
|--------2h3----------|------5-----5h6p5h6p5h6p5---------------------|
|-2"-5h4--------------|-6-------------------------2=================-|
|------------4"-2"-1"-|-4------000----------------0=================-|
                        .      ...
|----------------------------------------------------------------|
|----------------------------------------------------------------|
|---6-------------------------9h10p9h10p9h10p9-------------------|
|-----5-----5h6p5h6p5h6p5--------------------------8h9p8h9p8h9p8-|
|-4--------------------------------------------------------------|
|-------000---------------0-0------------------0-0---------------|
  .     ...               . .                  . .
|---------------------------------------------|
|---------------------------------------------|
|---6-----------------------------------------|
|-----5-----5h6p5h6p5h6p5---------------------|
|-4------------------------2=================-|
|-------000----------------0=================-|
  .     ...
|-----------------------------------------------------------------|
|-----------------------------------------------------------------|
|-------6----------------------9h10p9h10p9h10p9-------------------|
|---------5"-5h6p5h6p5h6p5--------------------------8h9p8h9p8h9p8-|
|-----4-----------------------------------------------------------|
|-7/-----------------------0-0------------------0-0---------------|
      .                    . .                  . .

                           _______________variation_________________
|-------------------------------------------------------------------|
|-------------------------------------------------------------------|
|---6-----------------------------------------6---------------------|
|-----5-----5h6p5h6p5h6p5-----------------------5-----5h6p5h6p5h6p5-|
|-4------------------------2-2-2-2-2-2-2-2--4-----774---------------|
|-------000----------------0-0-0-0-0-0-0-0--------------------------|
  .     ...                  . . . . . . .
|-----------------------------------------------------------------|
|-----------------------------------------------------------------|
|-----9h10p9h10p9h10p9----------------------6---------------------|
|--------------------------8h9p8h9p8h9p8------5-----5h6p5h6p5h6p5-|
|-----------------------------------------4-----------------------|
|-0-0------------------0-0----------------------000---------------|
  . .                  . .                      ...
Repeat Variation till Riff7

Riff7 (Owen solo)
|---------------------------------------------------------|
|---------------------------------------------------------|
|-6-------5-------------------6-------5-------------------|
|---5-------4-----4"-3"---------5-------4-----3"-2"-------|
|---------------------------------------------------------|
|-----3-2-----2-1-------3"-2"-----3-2-----2-1-------2"-1"-|
      . .     . .                 . .     . .

Repeat Riff4
Repeat note*
Repeat Riff1

Ending...
|---------------------------------------------------------|
|---------------------------------------------------------|
|-------------88-----------------------------88-----------|
|-88----77-------66-77----88----77----66--------66-77-----|
|----66----55----------66----66----55----44-----------66--|
|---------------------------------------------------------|
     ..    ..          ..    ..    ..    ..           ..

|-----------------------------------------------------------|
|-----------------------------------------------------------|
|-------------88-----------------------------88-------------|
|-88----77-------66-77----88----77----66--------66-77-------|
|----66----55----------66----66----55----44-----------66--2-|
|---------------------------------------------------------0-|
     ..    ..          ..    ..    ..    ..           .. .

End


Tab Legend
. - palm mute
\ - slide down to
/ - slide up to
h - hammer on
t - tap
ph - pinched harmonic
^ - Hold bend
r release bend
~ - vibrato bend
() - ghost note, sustained note
" - tremolo note
b - Bend
f - full bend
h - half bend
q - quarter bend
^ - Hold bend
r - release bend
Suggest correction new What's this?
You can suggest a correction to this tab. Community and Mods will review your correction and vote to approve or reject it.
comments
We did not receive enough feedback on this tab! Please rate:
print report bad tab
1 2 3 4 5
guest
You may want to rate the tab now too:
select rating
Please do not post tabs as comments. Select "correction" instead!