Oops, an error
Loading. Please wait.

Buried In The Backyard Tab

version 2
version 2

Whole song

Interactive

707 views 1 this week
no commentswrite comment
1 2 3 4 5
please rate
add to favorites
launch autoscroll
font size
0
reset
how to read this tab
guitar tuner
Tab Pro tools
  • play this tab
  • loop segment
  • change instrument
  • show fretboard
  • metronome
×
Best way to learn
"Buried In The Backyard"
Autoscroll
slow
fast
+/-
esc
set tempo
stop
Contributor
Difficulty
intermediate
Cannibal Corpse - Buried in the Backyard (1990)

listen to the song to know when to tremolo pick and palm mute and such.
NOTE: there are mistakes that i couldn't get, being that some riffs
are tuff to tab by ear. If anyone finds a fix plz email it to me.
Also listen to the song to hear the Riff order cuz i'm to lazy to
write it out, shouldn't be hard tho.

tune down 1/2 step

Riff:1               1-3    4th          Fill:1
|-------------------|---|--------------|----------------------------|
|-------------------|---|--------------|----------------------------|
|-------------------|---|--------------|----------------------------|
|-------------------|---|--------------|----------------------------|
|--10-11-10--8-7-8--|-2-|--11-10-11----|-----5-4------4-3-----------|
|--8--9--8---6-5-6--|-0-|-----------8--|---3-----5--2-----4---------|

Riff:2                                Riff:3
|------------------------------------|------------------------------|
|------------------------------------|------------------------------|
|------------------------------------|------------------------------|
|------------------------------------|------------------------------|
|----6-5---------------6-5-----------|------------------------------|
|--3-----6-4-7-5-6---3-----6-4-7-5-4-|---00-88-77-44-33-66-22-55----|

Riff:4              Riff:5
|------------------|------------------------------------------------|
|------------------|------------------------------------------------|
|------------------|------------------------------------------------|
|------------------|-----------------------------8-11-8-11----------|
|--654-543-222-222-|------7-10-----7-10-----7-10--------------------|
|----------000-000-|--6-9------6-9------6-9-------------------------|

Riff:6                          Riff:7              1st     2nd
|------------------------------|-------------------|-------|--------|
|------------------------------|-------------------|-------|--------|
|------------------------------|-------------------|-------|--------|
|-------10-9-8------------8-11-|-------h-p----h-p--|-------|--------|
|--8-11-8--7-6--8-11-7-10------|-666--6-7-6--5-6-5-|-------|--------|
|--6-9----------6-9------------|-444---------------|-4-1-7-|-4-0-1--|

Riff:8
|-------------------------------------------------------------------|
|-------------------------------------------------------------------|
|-------------------------------------------------------------------|
|---------------------------p----p-----------------------------p|---|
|----------6\5-6/8---------7-6--6-5---------6\5-6/8-----3-----3-2---|
|--0-0-0-0-4\3-4/6-0-0-0-0----------0-0-0-0-4\3-4/6-0-0-1-0-0-------|

Riff:9
|-------------------------------------------------------------------|
|-------------------------------------------------------------------|
|-------------------------------------------------------------------|
|---------------------p----p----p---------------------p----p--------|
|----------3---------6-5--7-6--8-7---------3---------5-4--4-3--p----|
|--0-0-0-0-1-0-0-0-0---------------0-0-0-0-1-0-0-0-0----------4-3---|

Fill:2  Riff:10                                 1-3   4th
|------|--------------------------------------------|---------------|
|------|--------------------------------------------|---------------|
|------|--------------------------------------------|---------------|
|------|--------------------------------------------|-------8-11----|
|--2-3-|--------------------------------------------|--7-10---------|
|--2-3-|--6--9-10-9--6--9-10-9--6--9-10-9--4-7--3-6-|---------------|

Riff:11                            Riff:12
|---------------------------------|---------------------------------|
|---------------------------------|---------------------------------|
|---------------------------------|---------------------------------|
|---------------------------------|----5-4-----3--------------------|
|--654-765---------654-765--------|--3-3-2-6-5-1-4---3--------------|
|----------303030----------303020-|--1-----4-3---2---1--------------|

 
comments
We did not receive enough feedback on this tab! Please rate:
print report bad tab
1 2 3 4 5
I want to post or [tab]
guest
You may want to rate the tab now too:
select rating
Please do not post tabs as comments. Select "correction" instead!