Oops, an error
Loading. Please wait.

Condemned To Agony Tab

version 1
version 1

Whole song

Interactive

583 views 1 this week
no commentswrite comment
1 2 3 4 5
please rate
add to favorites
launch autoscroll
font size
0
reset
how to read this tab
guitar tuner
Autoscroll
slow
fast
+/-
esc
set tempo
stop
Help us to improve Ultimate-Guitar.com Take our survey!
×
Author
Difficulty
Slatera 944
intermediate
Cannibal Corpse - Bloodthirst - Condemned To Agony (1999)


Riff1                      Riff 2a
-|------------------------|-------------------------------|
-|------------------------|-------------------------------|
-|------------------------|-------------------------------|
-|8-6---8-6---8-6---9-6---|-------------------------------|gtr.1(left)
-|----7-----7-----7-----7-|7-5---7-5----7-5---7-5---------|
-|------------------------|----6-----66-----6-----6-------|
 |                        |                              |
 |                        |                              |
-|------------------------|-------------------------------|
-|------------------------|-------------------------------|
-|6-4---6-4---6-4---7-4---|-------------------------------|
-|----6-----6-----6-----6-|--------8--------------------8-|gtr.2(right)
-|------------------------|5----7------7---8---7----5-----|
-|------------------------|-------------------------------|

  Riff 2b                  Riff2c                   Riff2d
-|------------------------|-------------------------|--------------------------|
-|------------------------|-------------------------|--------------------------|
-|------------------------|-------------------------|--------------------------|
-|------------------------|-------------------------|--------------------------|
-|6-4---6-4---6-4---6-4---|5-3---5-3----5-3---5-3---|4-2---4-2---4-2---4-2-----|
-|----5-----5-----5-----5-|----4-----55-----4-----4-|----3-----3-----3-----3---|
 |                        |                        |                          |
 |                        |                        |                          |
-|------------------------|-------------------------|--------------------------|
-|------------------------|-------------------------|--------------------------|
-|------------------------|-------------------------|--------------------------|
-|----------7777-------77-|--------6---------------6|----------5555--------55--|
-|4444-6666------667766---|3----5------5---6---5-3--|2222-4444------445544-----|
-|------------------------|-------------------------|--------------------------|

  Riff3
-|---------------------------|
-|---------------------------|
-|---------------------------|
-|-------------------7777----|
-|--------------4444---------|
-|6-5-0-6-5-0----------------|
 |                           |
-|---------------------------|
-|---------------------------|
-|---------------------------|
-|-------------------10101010|
-|--------------7777---------|
-|6-5-0-6-5-0----------------|
  Riff1(both guitars)
  Riff3                                                                            
  Riff1(both guitars)
  Riff2 (a,b,c,d)
  Riff3                                                                            
  Riff1(both guitars)
  Riff3
  Riff1(both guitars)
  Riff1
  Riff1b(outro)
-|-----------------------------------||
-|-----------------------------------||
-|-----------------------------------||
-|9-6----8-5----7-4----6-3----5-2----||
-|----7------6------5------4------3--||
-|-----------------------------------||
 |                                   |
 |                                   |
-|-----------------------------------||
-|-----------------------------------||
-|7-4----6-3----5-2----4-1----3-0----||
-|----6------5------4------3------2--||
-|-----------------------------------||
-|-----------------------------------||

 Riff4a(both guitars)          Riff4b(both guitars)
-|----------------------------|---------------------------------|
-|----------------------------|---------------------------------|
-|----------------------------|---------------------------------|
-|----------------7----4--4-4-|---------------------------------|
-|----------------5----2--2-2-|-----------7-6-5-4-------------5-|
-|x-x-x--x-x-x--x--x-x--------|x-x-x-xx-x---------8-7-6-5-4-3---|
 Riff4a(both guitars)
 Riff4c                            Riff5a
-|--------------------------------|---------------------------|
-|--------------------------------|---------------------------|
-|--------------------------------|---------------------------|
-|------------------6-5-4-3-------|---------4-3---------------|
-|----------8-7-6-5---------5-4-3-|----------------------6-5--|
-|x-x-x-x-x-----------------------|x-xx-x-x------x-x-x-x------|

  Riff5b
-|--------------------------------|
-|--------------------------------|
-|--------------------------------|
-|----------4-3-2-1---------------|
-|------------------4-3-2-1-------|
-|x-x-x-x-x-----------------4-3-2-|
 Riff5a
 Riff5c
 Riff4a
 Riff4b
 Riff4a
 Riff4c
  Riff5c(x16)     Riff6(x8)
-|---------------|---------------------|
-|---------------|---------------------|
-|---------------|---------------------|
-|---------------|---------------------|
-|5-5-5-5-5-5-5-5|---------------------|
-|x-x-x-x-x-x-x-x|x-x-x-x-x-x-x-x-x-x--|

  solo(Owen)
-|--------------------|7h9-7/9\7-7h9-77/10\7-|14-----13-----10-----9--------|
-|--------------------|----------------------|------------------------------|
-|4h6-4/6\4-4h6-4/7\4-|----------------------|------------------------------|
-|--------------------|----------------------|------------------------------|
-|--------------------|----------------------|------------------------------|
-|--------------------|----------------------|------------------------------|
  Riff5a                                                                           
  Riff5b
  Riff5a
  Riff5c
  Riff3
  Riff7
-|--------------------------|------------------------|-------------------------|
-|--------------------------|------------------------|-------------------------|
-|--------------------------|------------------------|-------------------------|
-|--------------------------|------------------------|-------------------------|
-|------3--5----------------|------5---7-------------|------7--9---------------|
-|0--2--------4--2--0--4--0-|0--4---------6--4--6--0-|0--6--------8--6--8--0---|
 |                          |                       |                         |
 |                          |                       |                         |
-|--------------------------|------------------------|-------------------------|
-|--------------------------|------------------------|-------------------------|
-|--------------------------|------------------------|-------------------------|
-|--------------------------|------------------------|------6--8---------------|
-|--------------------------|------------------------|---4--------7------------|
-|--------------------------|------------------------|0--------------8--8--0---|


-|-----------------|
-|-----------------|
-|-----------------|
-|-----------------|
-|------9--11------|
-|0--8--------10-8-|
 |                 |
 |                 |Riff8a(x4)        Riff8b(x4)
-|-----------------|-----------------||-------------------------|
-|-----------------|-----------------||-------------------------|
-|-----------------|-----------------||-------------------------|
-|------8--10------|-----------------||-------------------------|
-|------------9----|-----------------||7777-8888------5555------|
-|0--8----------8--|-x000x000x000x000||----------9999------7777-|

  fade out...
-|---------------------|
-|---------------------|
-|---------------------|
-|---------------------|
-|7777-8888------5-----|
-|----------9999---6-5-|

END OF SONG

Suggest correction
What's this?
You can suggest a correction to this tab. Community and Mods will review your correction and vote to approve or reject it.
comments
We did not receive enough feedback on this tab! Please rate:
print report bad tab
1 2 3 4 5
guest
You may want to rate the tab now too:
select rating
Please do not post tabs as comments. Select "correction" instead!