Oops, an error
Loading. Please wait.

Covered With Sores Tab

version 1
version 1

Whole song

Interactive

673 views 1 this week
no commentswrite comment
1 2 3 4 5
please rate
add to favorites
launch autoscroll
font size
0
reset
how to read this tab
guitar tuner
Autoscroll
slow
fast
+/-
esc
set tempo
stop
Help us to improve Ultimate-Guitar.com Take our survey!
×
Cannibal Corpse
Butchered At Birth
Covered With Sores


.  - palm mute           /  - slide up to
\  - slide down to       ~  - vibrato
h  - hammer on           b  - Bend
p  - pull off            Suffixes for bend
t  - tap                 f  - full bend    h - half bend
ph - pinched harmonic    q  - quarter bend t - tap bend
*  - see comment         ^  - Hold bend    r release bend
s  - Stuccatto           ~  - vibrato bend
,  - slight palm mute    () - ghost note, sustained note
"  - tremolo note        tr - Trill

Tuning is D#

**********************************
* (tr order for this song = hph) *
**********************************

Intro
|R                Part1 x4|                 Part2 x5|                 Part3 x1|
|-------------------------|-------------------------|-------------------------|
|-------------------------|-------------------------|-------------------------|
|-------------------------|-------------------------|-------------------------|
|--------fast slide-------|-------------------------|-------------------------|
|-2-2-0-6---3/4-----3-----|-2-2-0-6---3/4-----3-----|-2-2-0-6-----4-----3-----|
|-0-0-0-6-------6-5---5-4-|-0-0-0-6-------6-5---5-4-|-0-0-0---8-7---6-5---5-4-|
| . . .                   | . . .                   | . . .                   |
|L                        |                         |                         |
|-------------------------|-------------------------|-------------------------|
|-------------------------|-------------------------|-------------------------|
|-------------------------|-------------------------|-------------------------|
|-------------------------|-------------------------|-------------------------|
|-------6-----------------|-2-2-0-6---3/4-----3-----|-2-2-0-6-----4-----3-----|
|-------6-----------------|-0-0-0-6-------6-5---5-4-|-0-0-0---8-7---6-5---5-4-|
                            . . .                     . . .
Intro cont.
|R  Part2 x1|                 Part4 x1|  Part2 x4|
|-----------|-------------------------|----------|
|-----------|-------------------------|----------|
|-----------|-------------------------|----------|
|-----------|-------8-----6-----5-----|----------|
|-----------|-2-2-0--10-9---8-7---7-6-|----------|
|-----------|-0-0-0-------------------|----------|
|           | . . .                   |          |
|L          |                         |          |
|-----------|-------------------------|----------|
|-----------|-------------------------|----------|
|-----------|-------------------------|----------|
|-----------|-------------------------|----------|
|-----------|-2-2-0-6-----4-----3-----|----------|
|-----------|-0-0-0---8-7---6-5---5-4-|----------|
              . . .


Riff A x4           Passage x1
|-------------------||-------------------------------------------------|
|-------------------||-------------------------------------------------|
|-------------------||-------------------------------------------------|
|-------------------||-------------------------------------------------|
|-----6-------------||-----6-------------------------------------------|
|-00006---5tr6-4tr5-||-00006-*-5tr6-4tr5-3tr4-2tr3-4tr5-3tr4-2tr3-1tr2-|

Riff B x4
|------------------------|
|------------------------|
|------------------------|
|-----------------4h5----|
|-32526222|x3-3252---3h4-|
|------------------------|

Riff C x8
|--------------------|
|--------------------|
|--------------------|
|--------------------|
|------6---5tr6-4tr5-|
|-5tr6-4-------------|

Riff A x4
Riff B x4
Riff C x4

Mid section
|R         Part1 x2|          Part2 x6|          Part3 x4|          Part4 x4|
|------------------|------------------|------------------|------------------|
|------------------|------------------|------------------|------------------|
|------------------|------------------|------------------|------------------|
|------------------|------------------|------------------|------------------|
|------6---2-2-2-0-|------6---2-2-2-0-|-4-----3----------|-------1----------|
|-5tr6-4---0-0-0-0-|-5tr6-4---0-0-0-0-|---6-5---5-4-5tr6-|-2-1-0---3-2-1tr2-|
|          . . . . |          . . . . |                  |                  |
|L                 |                  |                  |                  |
|------------------|------------------|------------------|------------------|
|------------------|------------------|------------------|------------------|
|------------------|------------------|------------------|------------------|
|------------------|------------------|------------------|------------------|
|------6-----------|------6---2-2-2-0-|-4-----3----------|-------1----------|
|-5tr6-4-----------|-5tr6-4---0-0-0-0-|---6-5---5-4-5tr6-|-2-1-0---3-2-1tr2-|
                              . . . .

Mid section cont.
|R  Part3 x2|          Part5 x2|                Part6 x2|
|-----------|------------------|------------------------|
|-----------|------------------|------------------------|
|-----------|-6-----5----------|------------------------|
|-----------|---8-7---7-6-7tr8-|------------------------|
|-----------|------------------|-----------------7h8----|
|-----------|------------------|-65859555|x3-6585---6h7-|
|           |                  |                        |
|L          |                  |                        |
|-----------|------------------|------------------------|
|-----------|------------------|------------------------|
|-----------|------------------|------------------------|
|-----------|------------------|------------------------|
|-----------|-4-----3----------|-----------------7h8----|
|-----------|---6-5---5-4-5tr6-|-65859555|x3-6585---6h7-|

Mid section end
(@=10, #=11)
|R
|-----------------------------------------------|
|-----------------------------------------------|
|-----------------9h@---------------------------|
|-87@7#777|x3-87@7---8h9-87@7#777|x3------------|
|------------------------------------6------6-6-|
|------------------------------------4------4-4-|
|                                               |
|L                                              |
|-----------------------------------------------|
|-----------------------------------------------|
|-----------------------------------------------|
|-----------------------------------------------|
|-----------------7h8----------------6------6-6-|
|-65859555|x3-6585---6h7-65859555|x3-4------4-4-|

Riff D x2
|------------------------------------------------------------------------------|
|------------------------------------------------------------------------------|
|------------------------------------------------------------------------------|
|------------------------------------------------------------------------------|
|------3----6----5555------6----3----6666------3----6----5555-----55---6---3-3-|
|-0000-1000-4000------0000-4000-1000------0000-1000-4000------0000--00-4-001-1-|

Passage 2 x1
|---------------------------------------------------------------------------|
|---------------------------------------------------------------------------|
|---------------------------------------------------------------------------|
|---------------------------------------------------------------------------|
|------6---5tr6-4tr5------5---4tr5-3tr4------4---3tr4-2tr3------3-2tr3-1tr2-|
|-5tr6-4-------------4tr5-3-------------3tr4-2-------------2tr3-1-----------|

Riff A  x4
Passage x1
Passage x1 (begin from *)
Riff D  x1
Riff D  x1 (play a      instead of the last chord and let ring)
                  |---|
                  |---|
                  |---|
                  |-1-|
                  |-1-|
                  |---|

Kill with
|--------------|
|--------------|
|--------------|
|--------------|
|-55--66--3-3--|
|---0044001-1--|


END
Suggest correction
Give kudos to tab author, rate the tab!
1 2 3 4 5
comments
print report bad tab
guest
You may want to rate the tab now too:
select rating
Please do not post tabs as comments. Select "correction" instead!