Oops, an error
Loading. Please wait.

Death Walking Terror Tab

version 2
version 2

Whole song

Interactive

648 views 1 this week
no commentswrite comment
1 2 3 4 5
please rate
add to favorites
launch autoscroll
font size
0
reset
how to read this tab
guitar tuner
Tab Pro tools
  • play this tab
  • loop segment
  • change instrument
  • show fretboard
  • metronome
×
Best way to learn
"Death Walking Terror"
Autoscroll
slow
fast
+/-
esc
set tempo
stop
Contributor
Cannibal Corpse
Kill
Death Walking Terror

.  - palm mute
\  - slide down to
/  - slide up to
h  - hammer on
p  - pull off
t  - tap
ph - pinch harmonic
~  - vibrato
b  - bend
r  - release bend
tr - trill
x  - mute
*  - comment

Tuning: G# C# F# B D# G#

Guitar I - Pat O'Brien (Right channel)
Guitar II - Rob Barret (Left channel)



Figure 1 x4
|---------------------------------|
|---------------------------------|
|---------------------------------|
|---------------------------------|
|-8-5-5-5-5-5-5-5-5-5-5-5-5-5-5-5-|
|-6-3-3-3-3-3-3-3-3-3-3-3-3-3-3-3-|
    . . . . . . . . . . . . . . .

Guitar II plays this on first time
|---------------------------------|
|---------------------------------|
|---------------------------------|
|---------------------------------|
|-8-------------------------------|
|-6-------------------------------|



Figure 2 x8
|-------------------------------------------------|
|-------------------------------------------------|
|-------------------------------------------------|
|-------------------------------------------------|
|-------------------------------------------------|
|-6-4-3---0-0-0-0-0-0-0-0-0-0-0---6-4-3---9-7-6---|
  . . .   . . . . . . . . . . .   . . .   . . .



Figure 3A x1
|--------------------------------------------------------|
|--------------------------------------------------------|
|--------------------------------------------------------|
|-----------------------------------6--------------------|
|-----------------------------------4--------------------|
|-6-4-3---0---12-10-9---0---6-4-3-----0-0-0-0-0-0-0------|
  . . .   .   .  .  .   .   . . .     . . . . . . .

---------------------------------------------------------|
---------------------------------------------------------|
---------------------------------------------------------|
---------------------------------------------------------|
------------------------------------4444----7777----4444-|
--6-4-3---0---12-10-9---0---6-4-3--------33------33------|
  . . .   .   .  .  .   .   . . .



Figure 3B x1
|--------------------------------------------------------|
|--------------------------------------------------------|
|--------------------------------------------------------|
|-----------------------------------6--------------------|
|-----------------------------------4--------------------|
|-6-4-3---0---12-10-9---0---6-4-3-----0-0-0-0-0-0-0------|
  . . .   .   .  .  .   .   . . .     . . . . . . .

---------------------------------------------------------|
---------------------------------------------------------|
---------------------------------------------------------|
--------------------------------------------8888---------|
------------------------------------4444---------44------|
--6-4-3---0---12-10-9---0---6-4-3--------33---------3333-|
  . . .   .   .  .  .   .   . . .


Repeat Figure 2  x8
Repeat Figure 3A x1
Repeat Figure 3B x1



Figure 4A x4
|---------------------------------|
|---------------------------------|
|---------------------------------|
|---------------------------------|
|-------6-----7-------6---4---7---|
|-6-4-3---4-3---6-4-3---3---3---3-|
  . . .   . .   . . .   .   .   .


Repeat Figure 2  x4
Repeat Figure 3A x1
Repeat Figure 3B x1
Repeat Figure 4A x4



Figure 4B x4
|----------------------------------|
|----------------------------------|
|----------------------------------|GUITAR I
|----------------------------------|
|-------6-----7-------6---4---7----|
|-6-4-3---4-3---6-4-3---3---3---3--|
  . . .   . .   . . .   .   .   .

|----------------------------------|
|----------------------------------|
|----------------------------------|GUITAR II
|----------------------------------|
|-------6-----7-------9---7---10---|
|-6-4-3---4-3---6-4-3---6---6----6-|
  . . .   . .   . . .   .   . .  .



Repeat Figure 1 x4



Figure 5 x4
|------------------------------------------------------|
|------------------------------------------------------|
|------------------------------------------------------|* Those are
|---------------------------------88----99----11111111-|  tens and elevens
|-7777-44-8888-44-101010101010-77----77----77----------|
|------------------------------------------------------|



Figure 6A x2               Figure 6B x1
|-----------------|        |-----------------------|
|-----------------|        |-----------------------|
|-----------------|        |-----------------------|
|-----------------|        |-6-------------------5-|
|-------4-5---7-8-|        |---8-7-----------------|
|-6-0-3-----6-----|        |-------9-6-7-6-4-0-3---|
  . . .     .                        . . . . . .



Repeat Figure 6A x2



Figure 6C x4
|-------------------------------------|
|-------------------------------------|
|-------------------------------------|
|-6-----------------------------------|
|---8-7--------------7------8----7-10-|
|-------9-6-7-10-7-9---9-10---10------|
          . . .  . .   . .    .



Repeat Figure 2  x8
Repeat Figure 3A x1
Repeat Figure 3B x1
Repeat Figure 4A x4
Repeat Figure 4B x4
Repeat Figure 1  x2



End with this
|------|
|------|
|------|
|------|
|-8----|
|-6----|

DONE!
comments
We did not receive enough feedback on this tab! Please rate:
print report bad tab
1 2 3 4 5
I want to post or [tab]
guest
You may want to rate the tab now too:
select rating
Please do not post tabs as comments. Select "correction" instead!