Oops, an error
Loading. Please wait.

Decency Defied Bass Tab

version 1
version 1

Whole song

Interactive

2,543 views 12 this week
no commentswrite comment
1 2 3 4 5
excellent!
x 2
add to favorites
launch autoscroll
font size
0
reset
guitar tuner
Tab Pro tools
  • play this tab
  • loop segment
  • change instrument
  • show fretboard
  • metronome
Autoscroll
slow
fast
+/-
esc
set tempo
stop
Contributor
Song: Decency Defied
Band: Cannibal Corpse
Album: The Wretched Spawn
Bassist: Alex Webster
Tuning: Half Step Down (Bb Eb Ab Db Gb)

h - hammer on
p - pull off
/ - slide
 
Intro x2
Gb||-----------------------------------------------------------------|
Db||-----------------------------------------------------------------|
Ab||--------------------3-----4-------------------------3-----4------|
Eb||-----------------------------------------------------------------|
Bb||0-0-0-0-0-0-0-0-0h1---0h2---3/2-0-0-0-0-3/2-0-0-0h1---0h2---3/2--|

Verse 1a x2
Gb||---------------------------------|
Db||---------------------------------|
Ab||--------------------3-----4------|
Eb||--------6------------------------|
Bb||0-0-0-0---3-0-0-0h1---0h2---3/2--|

Verse 1b x1
Gb||----------------------------------------------------|
Db||----------------------------------------------------|
Ab||----------------------3-----4-----------------------|
Eb||6---------3-----------------------6---------3-------|
Bb||--3-0-1-2---22-0--0h1---0h2---3/2---3-0-1-2---22-0--|

Verse 2a x2
Gb||---------------------------------------------------------------------|
Db||---------------------------------------------------------------------|
Ab||---------------------------------------------------6-----------------|
Eb||6---------3------6---------3------6---------3----------------3-------|
Bb||--3-0-1-2---22-0---3-0-1-2---22-0---3-0-1-2---22-0---3-0-1-2---22-0--|

Verse 2b x2
Gb||-----------------------------------------------------------------|
Db||-----------------------------------------------------------------|
Ab||------------------------------------------------6----------------|
Eb||6---------------6---------------6--------------------------------|
Bb||--3-0-1-2-3/2-0---3-0-1-2-3/2-0---3-0-1-2-3/2-0---3-0-1-2-3/2-0--|

Chorus x2
Gb||---------------------------------|
Db||---------------------------------|
Ab||--------------------3-----4------|
Eb||6--------------------------------|
Bb||--3-0-1-2-3/2-0-0h1---0h2---3/2--|

Intro x2
Gb||-----------------------------------------------------------------|
Db||-----------------------------------------------------------------|
Ab||--------------------3-----4-------------------------3-----4------|
Eb||-----------------------------------------------------------------|
Bb||0-0-0-0-0-0-0-0-0h1---0h2---3/2-0-0-0-0-3/2-0-0-0h1---0h2---3/2--|

Verse 1a x2
Gb||---------------------------------|
Db||---------------------------------|
Ab||--------------------3-----4------|
Eb||--------6------------------------|
Bb||0-0-0-0---3-0-0-0h1---0h2---3/2--|

Verse 1b x1
Gb||---------------------------------------------------|
Db||---------------------------------------------------|
Ab||---------------------3-----4-----------------------|
Eb||6---------3----------------------6---------3-------|
Bb||--3-0-1-2---22-0-0h1---0h2---3/2---3-0-1-2---22-0--|

Verse 2a x2
Gb||---------------------------------------------------------------------|
Db||---------------------------------------------------------------------|
Ab||---------------------------------------------------6-----------------|
Eb||6---------3------6---------3------6---------3----------------3-------|
Bb||--3-0-1-2---22-0---3-0-1-2---22-0---3-0-1-2---22-0---3-0-1-2---22-0--|

Verse 2b x2
Gb||-----------------------------------------------------------------|
Db||-----------------------------------------------------------------|
Ab||------------------------------------------------6----------------|
Eb||6---------------6---------------6--------------------------------|
Bb||--3-0-1-2-3/2-0---3-0-1-2-3/2-0---3-0-1-2-3/2-0---3-0-1-2-3/2-0--|

Chorus x2
Gb||---------------------------------|
Db||---------------------------------|
Ab||--------------------3-----4------|
Eb||6--------------------------------|
Bb||--3-0-1-2-3/2-0-0h1---0h2---3/2--|

Bridge a
Gb||-----------------------------------------------------------------------|
Db||-----------------------------------------------------------------------|
Ab||-----------------------------------------------------------------------|
Eb||-----------------------------------------------------------------------|
Bb||0-0-0-0-0-0-0-0-0-0-0-0-0-0-0-0-0-0-0-0-0-0-0-0-0-0-0-0-0-0-0-0-0-0-0-0|

Bridge b/solo x8 (play 8 times total, not 8 times for each section)
Gb||---------------------------------------------------------------------|
Db||---------------------------------------------------------------------|
Ab||---------------------------------------------------6-----------------|
Eb||6---------3------6---------3------6---------3----------------3-------|
Bb||--3-0-1-2---22-0---3-0-1-2---22-0---3-0-1-2---22-0---3-0-1-2---22-0--|

Bridge c x2
Gb||---------------------------------|
Db||---------------------------------|
Ab||--------------------3-----4------|
Eb||6--------------------------------|
Bb||--3-0-1-2-3/2-0-0h1---0h2---3/2--|

Intro x2
Gb||-----------------------------------------------------------------|
Db||-----------------------------------------------------------------|
Ab||--------------------3-----4-------------------------3-----4------|
Eb||-----------------------------------------------------------------|
Bb||0-0-0-0-0-0-0-0-0h1---0h2---3/2-0-0-0-0-3/2-0-0-0h1---0h2---3/2--|

Verse 1a x2
Gb||---------------------------------|
Db||---------------------------------|
Ab||--------------------3-----4------|
Eb||--------6------------------------|
Bb||0-0-0-0---3-0-0-0h1---0h2---3/2--|

Verse 1b x1
Gb||----------------------------------------------------|
Db||----------------------------------------------------|
Ab||----------------------3-----4-----------------------|
Eb||6---------3-----------------------6---------3-------|
Bb||--3-0-1-2---22-0--0h1---0h2---3/2---3-0-1-2---22-0--|

Verse 2a x2
Gb||---------------------------------------------------------------------|
Db||---------------------------------------------------------------------|
Ab||---------------------------------------------------6-----------------|
Eb||6---------3------6---------3------6---------3----------------3-------|
Bb||--3-0-1-2---22-0---3-0-1-2---22-0---3-0-1-2---22-0---3-0-1-2---22-0--|

Verse 2b x2
Gb||-----------------------------------------------------------------|
Db||-----------------------------------------------------------------|
Ab||------------------------------------------------6----------------|
Eb||6---------------6---------------6--------------------------------|
Bb||--3-0-1-2-3/2-0---3-0-1-2-3/2-0---3-0-1-2-3/2-0---3-0-1-2-3/2-0--|

Chorus x2
Gb||---------------------------------|
Db||---------------------------------|
Ab||--------------------3-----4------|
Eb||6--------------------------------|
Bb||--3-0-1-2-3/2-0-0h1---0h2---3/2--|

Outro x1
Gb||-------------------||
Db||-------------------||
Ab||-------------------||
Eb||--0----------------||
Bb||--0----------------||

Little tricky but it can be done. Enjoy! :D
comments
We did not receive enough feedback on this tab! Please rate:
print report bad tab
1 2 3 4 5
I want to post or [tab]
guest
You may want to rate the tab now too:
select rating
Please do not post tabs as comments. Select "correction" instead!