Oops, an error
Loading. Please wait.

Demented Aggression Tab

version 1
version 1

Whole song

Interactive

3,154 views 12 this week
1 commentread comment
1 2 3 4 5
accurate
x 7
add to favorites
launch autoscroll
font size
0
reset
how to read this tab
guitar tuner
Autoscroll
slow
fast
+/-
esc
set tempo
stop
Help us to improve Ultimate-Guitar.com Take our survey!
×
Author
-------------------------------------------------------------------------------
                             Demented Aggression - Cannibal Corpse
-------------------------------------------------------------------------------

Tunings: 
Guitars: Standard B:        B - E - A - D - F# - b
First, make sure Guitar strings are AT LEAST Gauge 11.

Bass:    Standard B w/G(5th):    B - E - A - D - G
                                 1   2   3   4   5th 
************************************

Not 100%, especially Riff E, in that fricken break down.
just couldn't seem to get away from having to use the first fret,
instead of using the open top string, as it appears in live videos
I don't know... maybe open E sounds right on electric?
(I work everything out on Acoustic) lol... (no it's true) LOL!!

************************************


RIFF A:
b  |--------------------------------|-------------------------------|
F# |--------------------------------|-------------------------------|
D  |--------------------------------|-------------------------------|
A  |--------------------------------|-------------------------------|
E  |--12-0-0-12-0-0-12-0-0-12-15-13-|-12-0-0-12-0-0-12-0-0-12-16-13-|
B  |--------------------------------|-------------------------------|
   
b  |--------------------------------|-------------------------------|
F# |--------------------------------|-------------------------------|
D  |--------------------------------|-------------------------------|
A  |--------------------------------|--------7-----/8---------------|
E  |--12-0-0-12-0-0-12-0-0-12-15-13-|-12-0-0-5-0-0-/6----7--6--5----|
B  |--------------------------------|--------------------7--6--5----| 

RIFF A: 3 more times.



RIFF B:
b  |------------------|-----------------|-----------------|-----------------|------------------|
F# |------------------|-----------------|-----------------|-----------------|------------------|
D  |------------------|-----------------|-----------------|-----------------|------------------|
A  |------------------|-----------------|-----------------|-----------------|------------------|
E  |------------------|-8-8-8-8-8-8-8-8-|-8-8-8-8-8-8-8-8-|-8-8-8-8-9-9-7-7-|-8-8-7-7-9-9-8-8--|
B  |--7-7-7-7-7-7-7-7-|-----------------|-----------------|-----------------|------------------|
   |                                                                                           |
b  |------------------|-----------------|-----------------|-----------------|------------------|
F# |------------------|-----------------|-----------------|-----------------|------------------|
D  |------------------|-----------------|-----------------|-----------------|------------------|
A  |------------------|-----------------|-----------------|-----------------|------------------|
E  |------------------|-8-8-8-8-8-8-8-8-|-8-8-8-8-8-8-8-8-|-8-8-8-8-7-7-9-9-|-7-7-8-8-7-7-9-9--|
B  |--7-7-7-7-7-7-7-7-|-----------------|-----------------|-----------------|------------------|

Bass: During the B Riffs: (also: notice F# string, tuned up a ½ step to G)
(G)|-----11----------|-----11----------|-------------15--|-------------15--|
 D |-------------16--|-------------16--|-----10----------|-----10----------|
 A |--9--------------|--9--------------|---------13------|---------13------|
 E |---------14------|---------14------|--8--------------|--8--------------|
 B |-----------------|-----------------|-----------------|-----------------|

           Two             Handed            Tapping         Through-out   
    (use lefthand fingering for lower frets and right hand for upper frets)

(G)|-------------15--|-------------15--|-------------15--|-------------15--|
 D |-----10----------|-----10----------|-----10----------|-----10----------|
 A |---------13------|---------13------|---------13------|---------13------|
 E |--8--------------|--8--------------|--8--------------|--8--------------|
 B |-----------------|-----------------|-----------------|-----------------|

RIFF B: 1 more time.


RIFF A: Twice.


RIFF (B1): 
b  |------------------|-----------------|-----------------|-----------------|------------------|
F# |------------------|-----------------|-----------------|-----------------|------------------|
D  |------------------|-----------------|-----------------|-----------------|------------------|
A  |------------------|-----------------|-----------------|-----------------|------------------|
E  |------------------|-8-8-8-8-8-8-8-8-|-8-8-8-8-8-8-8-8-|-8-8-8-8-9-9-7-7-|-8-8-7-7-9-9-8-8--|
B  |--9-9-9-9-9-9-9-9-|-----------------|-----------------|-----------------|------------------|
   |                                                                                           |
b  |------------------------------|-------------------------------------------|---------------------|
F# |------------------------------|-------------------------------------------|---------------------|
D  |------------------------------|-T-P-H--T-P-H--T-P-H--T-P-H--T-P-H--T-P-H--|---------------------|
A  |--T-P-H--T-P-H--T-P-H--T-P-H--|-18-3-6-15-3-6-18-3-6-15-3-6-18-3-6-15-3-6-|-7---6---4---5---4--3|
E  |--17-2-5-14-2-5-17-2-5-14-2-5-|-------------------------------------------|-7---6---4---5---4--3|
B  |------------------------------|-------------------------------------------|-5---4---2---3---2--1|



RIFF C:
b  |-------------|-------------|-------------|-------------|
F# |-------------|-------------|-------------|-------------|
D  |-------------|-------------|-------------|-------------|
A  |-------------|-------------|-------------|-------------|
E  |-------3-----|-------4-----|-------3-----|-------5-----|
B  |-3-2-1---2-1-|-3-2-1---2-1-|-3-2-1---2-1-|-3-2-1---2-1-|

b  |-------------|-------------|-------------|-------------|
F# |-------------|-------------|-------------|-------------|
D  |-------------|-------------|-------------|-------------|
A  |-------------|-------------|-------------|---2-1-------|
E  |-------3-----|-------4-----|-------3-----|-3-----3-2---|
B  |-3-2-1---2-1-|-3-2-1---2-1-|-3-2-1---2-1-|-----------4-|

Repeat Riff C:


RIFF D:
b  |-------------|-------------|-------------|-------------|
F# |-------------|-------------|-------------|-------------|
D  |-------------|-------------|-------------|-------------|
A  |-------5-----|-------6-----|-------5-----|-------7-----|
E  |-5-4-3-3-4-3-|-5-4-3-4-4-3-|-5-4-3-3-4-3-|-5-4-3-5-4-3-|
B  |-3-2-1---2-1-|-3-2-1---2-1-|-3-2-1---2-1-|-3-2-1---2-1-|

b  |-------------|-------------|-------------|-------------|
F# |-------------|-------------|-------------|-------------|
D  |-------------|-------------|-------------|-------------|
A  |-------5-----|-------6-----|-------5-----|---2-1-------|
E  |-5-4-3-3-4-3-|-5-4-3-4-4-3-|-5-4-3-3-4-3-|-3-----3-2---|
B  |-3-2-1---2-1-|-3-2-1---2-1-|-3-2-1---2-1-|-----------4-|

Repeat Riff D:


RIFF A: Twice.


RIFF (B2):
b  |------------------|-----------------|-----------------|-----------------|------------------|
F# |------------------|-----------------|-----------------|-----------------|------------------|
D  |------------------|-----------------|-----------------|-----------------|------------------|
A  |------------------|-----------------|-----------------|-----------------|------------------|
E  |------------------|-8-8-8-8-8-8-8-8-|-8-8-8-8-8-8-8-8-|-8-8-8-8-9-9-7-7-|-8-8-7-7-9-9-8-8--|
B  |--9-9-9-9-9-9-9-9-|-----------------|-----------------|-----------------|------------------|
                                                                                            
b  |------------------------------|----------------------------------------------------------------|
F# |--T-P-H--T-P-H--T-P-H--T-P-H--|----------------------------------------------------------------|
D  |--16-4-7-19-4-7-16-4-7-19-4-7-|-T-P-H--T-P-H--T-P-H--T-P-H--T-P-H--T-P-H-----------------------|
A  |------------------------------|-15-3-6-18-3-6-15-3-6-18-3-6-15-3-6-18-3-6--7---6---4---5---4--3|
E  |------------------------------|--------------------------------------------7---6---4---5---4--3|
B  |------------------------------|--------------------------------------------5---4---2---3---2--1|


RIFF C: Twice.

RIFF D: Twice.


INTERLUDE: (Breakdown)
RIFF E1:
     GtI.                                                     Rake
b  |------------------------------------|-----------------------------|
F# |------------------------------------|--------------------3--------|
D  |------------------------------------|---------------------3-------|
A  |---------------------------------4\-|----------------------4------|
E  |-------------------------Trill---3\-|-----------------------5-----|
B  |-1---1---1---1---1---1-2H4P2H4P2----|-1---1---1---1---1------6----|
   |                                    |                     Rake     
   | GtII.                              |                   Harmonics |
b  |------------------------------------|--------------------3.2------|
F# |------------------------------------|---------------------3.2-----|
D  |------------------------------------|----------------------3.3----|
A  |---------------------------------4\-|-----------------------4.2---|
E  |-------------------------Trill---3\-|------------------------5.2--|
B  |-1---1---1---1---1---1-2H4P2H4P2----|-1---1---1---1---1-------6.2-|

Repeat Riff E1: 3 more times


RIFF E2:
b  |---------------------------------| continue
F# |---------------------------------| with next
D  |---------------------------------| line below
A  |---------------------------------| to finish
E  |-------------------------Trill---| off this
B  |-1---1---1---1---1---1-2H4P2H4P2-| section.


    "Left                As       a          pum.......meled     mound     of    "
b  |---------|---------|---------|---------|---------|---------|---------|---------|
F# |---------|---------|---------|---------|---------|---------|---------|---------|
D  |---------|---------|---------|---------|---------|---------|---------|---------|
A  |-4-------|(4)------|---------|---------|---------|-7-------|-5-------|-4-------|
E  |-3-------|(3)------|---------|-5-5-5-5-|-5-5-5-5-|-6-------|-4-------|-3-------|
B  |---------|---------|-4-------|---------|---------|-5-------|---------|---------|
    "Rot.................ting     de.........cay       un........der       the..."

Repeat E1 and E2 Sections


LEAD BREAK Rhythm:
RIFF F: Play twice
b  |-------------------------|-------------------------|----------------------|---------|
F# |-------------------------|-------------------------|----------------------|---------|
D  |-------------------------|-------------------------|----------------------|---------|
A  |-------------------------|-------------------------|----------------------|---------|
E  |-6-6-3-3-5-5-2-2-6-6-3-3-|-8-8-0-0-8-8-0-0-8-8-0-0-|-12-0-0-12-0-0-12-0-0-|-0-15-13-|
B  |-------------------------|-------------------------|----------------------|---------|

b  |-------------------------|-------------------------|----------------------|-------------------|
F# |-------------------------|-------------------------|----------------------|-------------------|
D  |-------------------------|-------------------------|----------------------|-------------------|
A  |-------------------------|-------------------------|----------------------|-------------------|
E  |-6-6-3-3-5-5-2-2-6-6-3-3-|-8-8-0-0-8-8-0-0-8-8-0-0-|-12-0-0-12-0-0-12-0-0-|-5--3--4--3--6--4--|
B  |-------------------------|-------------------------|----------------------|-3--1--2--1--4--2--|


ENDING:
RIFF C2:
b  |-------------|-------------|-------------|-------------|
F# |-------------|-------------|-------------|-------------|
D  |-------------|-------------|-------------|-------------|
A  |-------------|-------------|-------------|-------------|
E  |-------3-----|-------4-----|-------3-----|-------5-----|
B  |-3-2-1---2-1-|-3-2-1---2-1-|-3-2-1---2-1-|-3-2-1---2-1-|

b  |-------------|-------------|-------------|----------------|
F# |-------------|-------------|-------------|----------------|
D  |-------------|-------------|-------------|----9-8---------|
A  |-------------|-------------|-------------|-10-----10-9----|
E  |-------3-----|-------4-----|-------3-----|-------------11-|
B  |-3-2-1---2-1-|-3-2-1---2-1-|-3-2-1---2-1-|----------------|


RIFF C3:
b  |---------------|---------------|---------------|---------------|
F# |---------------|---------------|---------------|---------------|
D  |---------------|---------------|---------------|---------------|
A  |--------10-----|--------11-----|--------10-----|--------12-----|
E  |-10-9-8----9-8-|-10-9-8----9-8-|-10-9-8----9-8-|-10-9-8----9-8-|
B  |---------------|---------------|---------------|---------------|

b  |---------------|---------------|---------------|-------------|
F# |---------------|---------------|---------------|-------------|
D  |---------------|---------------|---------------|-------------|
A  |--------10-----|--------11-----|--------10-----|---2-1-------|
E  |-10-9-8----9-8-|-10-9-8----9-8-|-10-9-8----9-8-|-3-----3-2---|
B  |---------------|---------------|---------------|-----------4-|

b  |-------------|-------------|-------------|-------------|----||
F# |-------------|-------------|-------------|-------------|----||
D  |-------------|-------------|-------------|-------------|----|| THE
A  |-------5-----|-------6-----|-------5-----|---2-1-------|-8\-|| 
E  |-5-4-3-3-4-3-|-5-4-3-4-4-3-|-5-4-3-3-4-3-|-3-----3-2---|-7\-|| END
B  |-3-2-1---2-1-|-3-2-1---2-1-|-3-2-1---2-1-|-----------4-|-6\-||
Suggest correction
What's this?
You can suggest a correction to this tab. Community and Mods will review your correction and vote to approve or reject it.
comments
print report bad tab
1 comment total.
0 reply
flickermf 27 wrote on December 29 2012, 03:56 am

Great Tab m8!

guest
You may want to rate the tab now too:
select rating
Please do not post tabs as comments. Select "correction" instead!