Oops, an error
Loading. Please wait.

Disfigured Tab

version 2
version 2

Whole song

Interactive

1,660 views 3 this week
2 commentsread comments
1 2 3 4 5
2 more votes to show rating
add to favorites
launch autoscroll
font size
0
reset
how to read this tab
guitar tuner
Autoscroll
slow
fast
+/-
esc
set tempo
stop
Help us to improve Ultimate-Guitar.com Take our survey!
×
Author
Difficulty
advanced
Cannibal Corpse - Disfigured (1996)

. - palm mute
h - hammer on
p - pull off
tr - trill
/ - slide up
\ - slide down

Tabbed by Boris Kondakov (Vield)
For Questions, Comments, Corrections send to (vield@hotbox.ru)

Tuning Hb Eb G# Db F Hb

riff 1                                               x2
|------------|------------|------------|------------|
|------------|------------|------------|------------|
|----------5-|------------|------------|----6-----6-| GTRI+GTRII
|----7-------|----7-----4-|----7-----5-|------------|
|0-0---0-0---|0-0---0-0---|0-0---0-0---|0-0---0-0---|
|------------|------------|------------|------------|
 . .   . .    . .   . .    . .   . .    . .   . .

riff 2                                               x2
|------------|------------|------------|------------|
|------------|----------6-|------------|----------9-|
|----8-----6-|----8-------|----8-----6-|----8-------| GTRI+GTRII
|0-0---0-0---|0-0---0-0---|0-0---0-0---|0-0---0-0---|
|------------|------------|------------|------------|
|------------|------------|------------|------------|
 . .   . .    . .   . .    . .   . .    . .   . .

riff 1                                               x2
|------------|------------|------------|------------|
|------------|------------|------------|------------|
|----------5-|------------|------------|----6-----6-| GTRI+GTRII
|----7-------|----7-----4-|----7-----5-|------------|
|0-0---0-0---|0-0---0-0---|0-0---0-0---|0-0---0-0---|
|------------|------------|------------|------------|
 . .   . .    . .   . .    . .   . .    . .   . .

riff 3                     x4
|------------|------------|
|------------|------------|
|------------|------------| GTRI+GTRII
|----4-----4-|----4-----4-|
|0-0---0-0---|0-0---0-0---|
|------------|------------|
 . .   . .    . .   . .

riff 4                                               x2
|------------|------------|------------|------------|
|------------|------------|------------|------------|
|------------|------------|------------|----5-------| GTRI+GTRII
|----4-----7-|----4-------|----4-----7-|----------7-|
|0-0---0-0---|0-0---0-0-0-|0-0---0-0---|0-0---0-0---|
|------------|------------|------------|------------|
 . .   . .    . .   . . .  . .   . .    . .   . .

riff 4a                                              x2
|------------|------------|------------|------------|
|------------|------------|------------|------------|
|------------|------------|------------|----5-------| GTRI
|----4-----7-|----4-------|----4-----7-|----------7-|
|0-0---0-0---|0-0---0-0-0-|0-0---0-0---|0-0---0-0---|
|------------|------------|------------|------------|
| . .   . .    . .   . . .  . .   . .    . .   . .
|
|-------------|------------|-------------|-------------|
|-------------|------------|-------------|-------------|
|-------------|------------|-------------|----8--------| GTRII
|----7-----10-|----7-------|----7-----10-|----------10-|
|0-0---0-0----|0-0---0-0-0-|0-0---0-0----|0-0---0-0----|
|-------------|------------|-------------|-------------|
 . .   . .     . .   . . .  . .   . .     . .   . .

riff 3a                    x3
|------------|------------|------------|----------------|
|------------|------------|------------|----------------|
|------------|------------|------------|----------------| GTRI+GTRII
|----4-----4-|----4-----4-|----4-----4-|----------------|
|0-0---0-0---|0-0---0-0---|0-0---0-0---|0-0-0-0-0-0-0-0-|
|------------|------------|------------|----------------|
 . .   . .    . .   . .    . .   . .    . . . . . . . .

riff 5        1,3_________ 2___________ 4___________ x1
|------------|------------|------------|------------|
|------------|------------|------------|------------|
|------------|------------|------------|9\6-9\6-9\6-| GTRI+GTRII
|5p6-5p6-5p6-|4-----4-----|4-----7-----|7\4-7\4-7\4-|
|------------|--0-0---0-0-|--0-0---0-0-|------------|
|------------|------------|------------|------------|
                . .   . .    . .   . .

riff 5a       1___________ 2___________ 3___________ 4________________________ x1
|------------|------------|------------|------------|------------|------------|
|------------|------------|------------|------------|------------|------------|
|------------|------------|------------|------5-----|------------|------------| GTRI+GTRII
|5p6-5p6-5p6-|4-----4-----|4-----7-----|4-----------|7-----4-----|7-----4-----|
|------------|--0-0---0-0-|--0-0---0-0-|--0-0---0-0-|--0-0---0-0-|--0-0---0-0-|
|------------|------------|------------|------------|------------|------------|
                . .   . .    . .   . .    . .   . .    . .   . .    . .   . .

riff 6           1,2,3_______                    x2
|---------------|------------|------------------|
|---------------|------------|------------------|
|---------------|------------|------------------| GTRI+GTRII
|---------------|------------|------------------|
|---------------|------------|10/11-10/11-10/11-|
|/6---/9---\6---|333333333333|8-/9--8-/9--8-/9--|
                 ............

riff 4                                               x2
|------------|------------|------------|------------|
|------------|------------|------------|------------|
|------------|------------|------------|----5-------| GTRI+GTRII
|----4-----7-|----4-------|----4-----7-|----------7-|
|0-0---0-0---|0-0---0-0-0-|0-0---0-0---|0-0---0-0---|
|------------|------------|------------|------------|
 . .   . .    . .   . . .  . .   . .    . .   . .

riff 4a                                              x2
|------------|------------|------------|------------|
|------------|------------|------------|------------|
|------------|------------|------------|----5-------| GTRI
|----4-----7-|----4-------|----4-----7-|----------7-|
|0-0---0-0---|0-0---0-0-0-|0-0---0-0---|0-0---0-0---|
|------------|------------|------------|------------|
| . .   . .    . .   . . .  . .   . .    . .   . .
|
|-------------|------------|-------------|-------------|
|-------------|------------|-------------|-------------|
|-------------|------------|-------------|----8--------| GTRII
|----7-----10-|----7-------|----7-----10-|----------10-|
|0-0---0-0----|0-0---0-0-0-|0-0---0-0----|0-0---0-0----|
|-------------|------------|-------------|-------------|
 . .   . .     . .   . . .  . .   . .     . .   . .

riff 3a                    x3
|------------|------------|------------|----------------|
|------------|------------|------------|----------------|
|------------|------------|------------|----------------| GTRI+GTRII
|----4-----4-|----4-----4-|----4-----4-|----------------|
|0-0---0-0---|0-0---0-0---|0-0---0-0---|0-0-0-0-0-0-0-0-|
|------------|------------|------------|----------------|
 . .   . .    . .   . .    . .   . .    . . . . . . . .

riff 7                                                               x4
|----------------|----------------|----------------|----------------|
|----------------|----------------|----------------|----------------|
|----------------|----------------|----------------|5555------------| GTRI+GTRII
|4-------77777777|4---------------|4-------77777777|----444477774444|
|----------------|--------66666666|----------------|----------------|
|----------------|----------------|----------------|----------------|
         ........         ........         ........ ................

riff 8            x8
|----------------|
|--------------8-|
|----------6666--| GTRI
|----4-7777------|
|0-6-------------|
|----------------|
|. . . ........
|
|----------------|
|----------------|
|----------6666--| GTRII
|----4-7777----7-|
|0-6-------------|
|----------------|
 . . . ........

riff 9                     x1
|------------|------------|
|------------|------------|
|------------|------------| GTRI
|------------|--------9-6-|
|------------|--------7-4-|
|------------|------------|
|
|------------|------------|
|------------|------------|
|------------|----5-------| GTRII
|----4-----7-|--------9-6-|
|0-0---0-0---|0-0-----7-4-|
|------------|------------|
 . .   . .    . .

riff 9a                    x4
|------------|------------|------------|--------|
|------------|------------|------------|--------|
|------------|----5-------|------------|----5---| GTRI+GTRII
|----4-----7-|--------9-6-|----4-----7-|--------|
|0-0---0-0---|0-0-----7-4-|0-0---0-0---|0-0-----|
|------------|------------|------------|--------|
 . .   . .    . .          . .   . .    . .

riff 3a
|------------|------------|------------|----------------|
|------------|------------|------------|----------------|
|------------|------------|------------|----------------| GTRI+GTRII
|----4-----4-|----4-----4-|----4-----4-|----------------|
|0-0---0-0---|0-0---0-0---|0-0---0-0---|0-0-0-0-0-0-0-0-|
|------------|------------|------------|----------------|
 . .   . .    . .   . .    . .   . .    . . . . . . . .

riff 10                                                                                         x1
|------------|------------------|------------|------------|------------------------------------|
|------------|------------------|------------|------------|------------------------------------|
|------------|------------------|------------|------------|------------------------------------| GTRI
|------------|------------------|------------|------------|------------------------------------|
|------------|10/11-10/11-10/11-|------------|------------|10/11-10/11-10/11-10/11-10/11-10/11-|
|------------|8-/9--8-/9--8-/9--|------------|------------|8-/9--8-/9--8-/9--8-/9--8-/9--8-/9--|
|
|
|------------|------------------|------------|------------|------------------------------------|
|------------|------------------|------------|------------|------------------------------------|
|------------|------------------|------------|------------|------------------------------------| GTRII
|------------|------------------|------------|------------|------------------------------------|
|------------|10/11-10/11-10/11-|------------|------------|10/11-10/11-10/11-10/11-10/11-10/11-|
|666699996666|8-/9--8-/9--8-/9--|666699996666|333333333333|8-/9--8-/9--8-/9--8-/9--8-/9--8-/9--|
 ............                    .........................

riff 5        1,3_________ 2___________ 4___________ x1
|------------|------------|------------|------------|
|------------|------------|------------|------------|
|------------|------------|------------|9\6-9\6-9\6-| GTRI+GTRII
|5p6-5p6-5p6-|4-----4-----|4-----7-----|7\4-7\4-7\4-|
|------------|--0-0---0-0-|--0-0---0-0-|------------|
|------------|------------|------------|------------|
                . .   . .    . .   . .

riff 5a       1___________ 2___________ 3___________ 4________________________ x1
|------------|------------|------------|------------|------------|------------|
|------------|------------|------------|------------|------------|------------|
|------------|------------|------------|------5-----|------------|------------| GTRI+GTRII
|5p6-5p6-5p6-|4-----4-----|4-----7-----|4-----------|7-----4-----|7-----4-----|
|------------|--0-0---0-0-|--0-0---0-0-|--0-0---0-0-|--0-0---0-0-|--0-0---0-0-|
|------------|------------|------------|------------|------------|------------|
                . .   . .    . .   . .    . .   . .    . .   . .    . .   . .

riff 6           1,2,3_______                    x2
|---------------|------------|------------------|
|---------------|------------|------------------|
|---------------|------------|------------------| GTRI+GTRII
|---------------|------------|------------------|
|---------------|------------|10/11-10/11-10/11-|
|/6---/9---\6---|333333333333|8-/9--8-/9--8-/9--|
                 ............

riff 6a          1,2,3_______                    x6
|---------------|------------|------------------|
|---------------|------------|------------------|
|---------------|------------|------------------| GTRI+GTRII
|---------------|------------|------------------|
|---------------|------------|10/11-10/11-10/11-|
|/6---/9---\6---|3-3-3-3-3-3-|8-/9--8-/9--8-/9--|
                 . . . . . .

Suggest correction
Give kudos to tab author, rate the tab!
1 2 3 4 5
comments
print report bad tab
2 comments total.
0 reply
JHC_DOH 30 Oct 22, 2009 04:39 PM

Hey, pal. There's no H flat. That's dumb.

0 reply
cannibaldeicide 10 Oct 27, 2009 08:28 PM

H is used in some places to refer to B. It's weird, but H-flat would be B-flat.

guest
You may want to rate the tab now too:
select rating
Wanna post a correction for this tab? Suggest correction