Oops, an error
Loading. Please wait.

Disfigured Tab

version 3
version 3

Whole song

Interactive

793 views 1 this week
no commentswrite comment
1 2 3 4 5
please rate
add to favorites
launch autoscroll
font size
0
reset
how to read this tab
guitar tuner
Tab Pro tools
  • play this tab
  • loop segment
  • change instrument
  • show fretboard
  • metronome
Autoscroll
slow
fast
+/-
esc
set tempo
stop
Contributor
Difficulty
intermediate
CANNIBAL CORPSE - DISFIGURED

tabbed by: thesun.is.humming@gmail.com


Tuning: C#


Fig. 1  (2x)
e--------------------------------------------------|
B--------------------------------------------------|
G--------------------------------------------------|
D-4----7-----4-----1-----4-----7-----8p7-----8-----|
A--0-0---0-0---0-0---0-0---0-0---0-0-----0-0---0-0-|
E--------------------------------------------------|

Fig. 2   (2x)
e------------------------------------------------------|
B------------------------------------------------------|
G---------------------8-------------------------10-----|
D-10-0-0-8-0-0-10-0-0---0-0-10-0-0-8-0-0-10-0-0----0-0-|
A------------------------------------------------------|
E------------------------------------------------------|


Fig. 1  (2x)


Fig. 3 (16x)
e-------|
B-------|
G-------|
D-------|
A-6-----|
E---3-3-|


Fig. 4  (4x)   (Repulsion of beauty...)
e--------------------------------------------------|
B--------------------------------------------------|
G--------------------------------------------------|
D--------------------------------------------------|
A-6-0-0-9-0-0-6-----------6-0-0-9-0-0-12-0-0-9-0-0-|
E---------------5-5-0-0-0--------------------------|


Fig. 3  (15x)

Fig. 5  (I despise what I see in the mirror...)
e----------------------------------------------------------------------|
B----------------------------------------------------------------------|
G----------------------------------------------------------------------|
D----------------------------------------------------------------------|
A-----4h5-----------9---------4h5-----------12-----------4h5-----------|
E-5h6-----4h5-0-0-0---0-0-5h6-----4h5-0-0-0----0-0-0-5h6-----4h5-0-0-0-|

   (1st ending)                   (2nd ending)
e--------------------------------|-------------|
B--------------------------------|-------------|
G--------------------------------|-------------|
D--------------------------------|-------------|
A-6-0-0-9-0-0-6-0-0-9-0-0-6-0-0--|-7/8-7/8-7/8-|
E--------------------------------|-5/6-5/6-5/6-|



Fig. 6  (A straight razor will reshape my face...)
e----------------------------------------------------------------------|-------------|
B----------------------------------------------------------------------|-------------|
G----------------------------------------------------------------------|-------------|
D----------------------------------------------------------------------|-------------|
A-----5p4----------------5p4----------------5p4----------------5p4-----|-7/8-7/8-7/8-|
E-6p5-----5p4-000000-6p5-----5p4-000000-6p5-----5p4-000000-6p5-----5p4-|-5/6-5/6-5/6-|



Fig. 4 (Now I'm hacking at my chest...)

Fig. 3 (15x)


Fig. 7 (I fill my tub with alcohol...)
e----------------------------------------------
B----------------------------------------------
G----------------------------------------------
D----------------------------------------------
A-6-------999999--------6--------------6-------
E---6-6-6--------666666---6-6-6-000000---6-6-6-

e-------------------------------------------------|
B-------------------------------------------------|
G-------------------------------------------------|
D-------------------------------------------------|
A-999999--------121212121212--------999999--------|
E--------666666--------------666666--------666666-|


Fig. 8   (Cauterize, my skin is charred...)
e-----------------|
B-------------9-6-|
G---------666-----|
D-----------------|
A-----------------|
E-6-6-8-8---------|



Fig. 9a 
e------|--------------------|------|
B------|--------------------|------|
G------|--------------------|------|
D------|--------------------|------|
A-11-9-|--------------------|-11-9-|
E-9--7-|--------------------|-9--7-|
       |                    |      |
e------|--------------------|------|
B------|--------------------|------|
G------|--------------------|------|
D------|--------------------|------|
A-11-9-|-----6-----9-----12\|-11-9-|
E-9--7-|-0-0---6-6---6-6----|-9--7-|



Fig. 9b
e--------------------------|
B--------------------------|
G--------------------------|
D--------------------------|
A-----6-----6-----12--11-9-|
E-0-0---6-6---6-6-----9--7-|


Fig. 10
e-----------|-------------|-----------------|-------------------------|
B-----------|-------------|-----------------|-------------------------|
G-----------|-------------|-----------------|-------------------------|
D-----------|-------------|-----------------|-------------------------|
A-----------|-7/8-7/8-7/8-|-----------------|-7/8-7/8-7/8-7/8-7/8-7/8-|
E-----------|-5/6-5/6-5/6-|-----------------|-5/6-5/6-5/6-5/6-5/6-5/6-|
            |             |                 |                         |
e-----------|-------------|-----------------|-------------------------|
B-----------|-------------|-----------------|-------------------------|
G-----------|-------------|-----------------|-------------------------|
D-----------|-------------|-----------------|-------------------------|
A-----------|-7/8-7/8-7/8-|-----------------|-7/8-7/8-7/8-7/8-7/8-7/8-|
E-111444333-|-5/6-5/6-5/6-|-111444333000000-|-5/6-5/6-5/6-5/6-5/6-5/6-|


Fig. 5 (I despise what I see in the mirror...)

Fig. 6 (I see an image...)


Fig. 11 (outro)  (repeat a lot)
e--------------------------------------------------
B--------------------------------------------------
G--------------------------------------------------
D--------------------------------------------------
A-----5p4---------------------5p4------------------
E-6p5-----5p4-0-0-0-0-0-0-6p5------5p4-0-0-0-0-0-0-


e---------------------------------------------------|
B---------------------------------------------------|
G---------------------------------------------------|
D---------------------------------------------------|
A-----5p4----------------------5p4------7/8-7/8-7/8-|
E-6p5------5p4-0-0-0-0-0-0-6p5------5p4-5/6-5/6-5/6-|




| /  slide up
| \  slide down
| h  hammer-on
| p  pull-off

comments
We did not receive enough feedback on this tab! Please rate:
print report bad tab
1 2 3 4 5
I want to post or [tab]
guest
You may want to rate the tab now too:
select rating
Please do not post tabs as comments. Select "correction" instead!