Oops, an error
Loading. Please wait.

Ecstacy In Decay Tab

version 1
version 1

Whole song

752 views 1 this week
no commentswrite comment
1 2 3 4 5
please rate
add to favorites
launch autoscroll
font size
0
reset
how to read this tab
guitar tuner
Tab Pro tools
  • play this tab
  • loop segment
  • change instrument
  • show fretboard
  • metronome
×
Best way to learn
"Ecstacy In Decay"
Autoscroll
slow
fast
+/-
esc
set tempo
stop
Contributor
Difficulty
intermediate
Cannibal Corpse - Bloodthirst - Ecstacy In Decay (1999)

Riff 1 ( x 5 )					      Riff 2 ( x 2 )
Eb|-----------|--------------------------|     |---------------------|
Bb|-----------|--------------------------|     |---------------------|
F#|-----------|--------------------------|     |---------------------|
C#|-----------|--------------------------|     |---------------------|
G#|------9----|------------------8-8-8-8-|     |----8--7-------8--9--|
Eb|-7----7----|-7------------------------|     |---------------------|
Bb|-0---------|-0--------6-6-6-6---------|     |-6--------6----------|
Riff 1
Riff 2

Riff 2a: Gtr1 play Riff 2
         Gtr2 play:
|-------------------------|
|-------------------------|
|-------------------------|
|-------------------------|
|----11--10-------11--12--|
|-------------------------|
|-8----------8------------|

Riff 3 ( x 5)            Riff 4
|---------------|		|-----------------|
|---------------|		|-----------------|
|---------------|		|-----------------|
|---------------|		|-----------------|
|---------------|		|-6-1-1-1-9-1-1-1-|
|-7-4-4-7-4-4---|		|-4-1-1-1-7-1-1-1-|
|---------------|		|-----------------|
Riff 3
Riff 4
Riff 3
Riff 4
Riff 3
Riff 4

Riff 5
|------------------------------|
|------------------------------|
|------------------------9-8-6-|
|--------------3-3-6-5-3-------|
|------5-5-6-6-----------------|
|-5----------------------------|
|-3----------------------------|

                   Riff 6 ( x 3 )
|---------------|	|-------------|---------------|
|---------------|	|-------------|---------------|
|---------------|	|-------------|---------------|
|---------------|	|-------------|---------------|
|-6-5-3---------|	|-------8-----|-6-5-3---------|
|-------5-6-3---|	|-------------|-------5-6-3---|
|---------------|	|-6-6-6-------|---------------|
Riff 7a         Riff 7b ( x 2 ) (play this part very quicly)
|--------------|---------------------------------|
|--------------|---------------------------------|
|--------------|---------------------------------|
|--------------|---------------------------------|
|-------11-----|-5-0-5-0-6-0-5-0-5-0-7-0-6-0-5-0-|
|--------------|---------------------------------|
|-9-9-9--------|---------------------------------|
                           Riff 8 ( x 2 )
|-------------------------|--------------------------------------------------|
|-------------------------|--------------------------------------------------|
|-------------------------|--------------------------------------------------|
|-------------------------|--------------------------------------------------|
|-3-0-2-0-2-0-2-0---------|-8---------7--------8-----------------------------|
|-------------------------|-10--------9--------10----------------------------|
|-------------------------|------------------------------8-12-8-12-8-12-8-12-|
Riff 9 (very very quicly)
|-------------------------------------|------------------------------------|
|-------------------------------------|------------------------------------|
|-------------------------------------|------------------------------------|
|-------------------------------------|------------------------------------|
|----9-8----9-8----9-8----9-8---6-5---|-6-5---6-5---6-5----9-8----9-8----9-|
|-10-----10-----10-----10-----7-----7-|-----7-----7-----10-----10-----10---|
|-------------------------------------|------------------------------------|

|---------------------------------------|-----------------------------------|
|---------------------------------------|-----------------------------------|
|---------------------------------------|-----------------------------------|
|-------------11-11-10-8----8-8-9-9-8-8-|---4-4-5-5-4---9-9-10-10-9---7-7-8-|
|-8----9-8-12------------10-------------|-6-----------8-------------7-------|
|---10----------------------------------|-----------------------------------|
|---------------------------------------|-----------------------------------|

|----------------------------------------|
|----------------------------------------|
|----------------------------------------|
|-8-7------------------------------------|
|-----------------------12-12-13-13-12---|
|--------10-10-9-9-10-9------------------|
|-----11---------------------------------|
Riff 7
Riff 5 ( x 4 )
Riff 6
Riff 7a
Riff 7b ( x 4 )
Riff 3

END OF SONG
comments
We did not receive enough feedback on this tab! Please rate:
print report bad tab
1 2 3 4 5
I want to post or [tab]
guest
You may want to rate the tab now too:
select rating
Please do not post tabs as comments. Select "correction" instead!