Oops, an error
Loading. Please wait.

Entrails Ripped From A Virgins Cunt Tab

version 2
version 2

Whole song

1,300 views 3 this week
no commentswrite comment
1 2 3 4 5
please rate
add to favorites
launch autoscroll
font size
0
reset
how to read this tab
guitar tuner
Autoscroll
slow
fast
+/-
esc
set tempo
stop
Help us to improve Ultimate-Guitar.com Take our survey!
×
Author
Difficulty
intermediate
CANNIBAL CORPSE -  Entrails Ripped From A Virgin's Cunt (1992)


.  - palm mute                  /  - slide up to
\  - slide down to              ~  - vibrato
"  - tremelo picking           ( ) - ghost note
b  - bend                       h  - hammer-on
fb - full bend (1 step)         p  - pull-off
hb - half bend (1/2 step)       r  - release a bend
t  - tapping                    ah - artificial harmonic

Tune down 1/2 step (L to H) Eb Ab Db Gb Bb Eb

Entrails Ripped From A Virgin's Cunt

riff 1           riff 2                              riff 3
|----------------|-----------------------------------|---------------------------|
|----------------|-----------------------------------|---------------------------|
|-------------2--|-----------------------------------|---------------------------|
|-------3---4-2--|-3---4---7---6---4---3---4---3-3---|-----3-----3-----7-/8-7----|
|-------3---4-0--|-3---4---7---6---4---3---4---3-3---|-----3-----3-----7-/8-7----|
|-0-0-0-1-0-2----|-1-0-2-0-5-0-4-0-2-0-1-0-2-0-1-1-0-|-0-0-1-0-0-1-0-0-5-/6-5----|


riff 4                                       riff 5
|----------------------------------|-----------------------------------|
|----------------------------------|-----------------------------------|
|----------------------------------|-----------------------------------|
|----------------------------------|-7-/8-\7-6-------------------------|
|----------------------------------|-7-/8-\7-6---------------77777777--|
|-444-1-0-555-1-0-666-1-0-777-8-7--|-5-/6-\5-4-1-0--44444444-----------|


riff 6
|--------------------------------------------------------------|
|--------------------------------------------------------------|
|--------------------------------------------------------------|
|-------------------------------------4-/5-\4-3-7-/8-\7-6------|
|----------77777777-44444444----------4-/5-\4-3-7-/8-\7-6------|
|-44444444-------------------11111111-2-/3-\2-1-5-/6-\5-4------|


riff 7            riff 8                    riff 9
|----------------|-------------------------|----------------------------------|
|----------------|-------------------------|----------------------------------|
|----------------|-------------------------|----------------------------------|
|-----3---3-/4-3-|------------------4-/5-3-|-----------------------------5-p0-|
|-----3---3-/4-3-|-----------4444---4-/5-3-|-----------------------------5-p0-| 
|-0-0-1-0-1-/2-1-|-0-0-1111-------1-2-/3-1-|-444-1-0-555-1-0-666-1-0-777-3-p0-|


2nd solo
|-------------------------------------------------------------------------------------
|-------------------------------------------10-h11------------------------------------
|---------------10-h11---------------10-h11--------10-h11---------------10-h11--------
|-11-h12-11-h12--------11-h12-11-h12-----------------------------11-h12---------------
|---------------------------------------------------------12-h13----------------------
|-------------------------------------------------------------------------------------



--------------------------------------------------------13-h14-p13-----------------
----------------------10-h11-p10-----------------14-h15------------14-h15-p14------
---------------10-h11------------10-h111-14-h15------------------------------------
-11-h12-11-h12---------------------------------------------------------------------
-----------------------------------------------------------------------------------
-----------------------------------------------------------------------------------


-----------------------13-h14-p13--------------------------------------|-------|
------------14-h15-p14------------14-h115-p14------------14-h15-p14----|-------|
-14-h15-p14-----------------------------------14-h15-p14------------13-|-------|
-----------------------------------------------------------------------|-4-5-3-|
-----------------------------------------------------------------------|-4-5-3-|
-----------------------------------------------------------------------|-2-3-1-|


riff 10      riff 11
|-----------|---------------|
|-----------|---------------|
|-44--------|---------------|
|-----1-2---|-6-/7-6-4-/5-3-|
|-----------|-6-/7-6-4-/5-3-|
|---------0-|-4-/5-4-2-/3-1-|





order of play:

riff 1 4x
riff 2 4x
riff 1 4x
riff 3 8x
riff 4 4x
riff 5 5x
riff 6 4x (cut off after 1st 3 chords on 4th time)
riff 3 8x
riff 2 4x
riff 7 8x
riff 8 8x
riff 9 8x
riff 5 4x
riff 7 1x
riff 8 4x
riff 1 4x
riff 2 4x
riff 1 4x
riff 3 4x (under 1st solo)
2nd solo
riff 10 16x
riff 4 4x
riff 9 8x
riff 10 8x
riff 11 4x
Suggest correction
Give kudos to tab author, rate the tab!
1 2 3 4 5
comments
print report bad tab
guest
You may want to rate the tab now too:
select rating
Wanna post a correction for this tab? Suggest correction