Oops, an error
Loading. Please wait.

Evisceration Plague Tab

version 2
version 2

Whole song

Interactive

21,719 views 6 this week
16 commentsread comments
1 2 3 4 5
excellent!
x 10
add to favorites
launch autoscroll
font size
0
reset
how to read this tab
guitar tuner
Tab Pro tools
  • play this tab
  • loop segment
  • change instrument
  • show fretboard
  • metronome
×
Best way to learn
"Evisceration Plague"
Autoscroll
slow
fast
+/-
esc
set tempo
stop
Contributor
Evisceration Plague by Cannibal Corpse
off the album: Evisceration Plague

Hello UG !!! First of all, all credits go to Darkling83 !!!
I copied HIS tab here, but I'm the guy that will be doing corrections, so lots of work 
done for me by him, so give him a warm applaus because without HIM, you guys would be 
no Evisceration Plague, and I couldn't cover it on youtube =p (youtube name : x666xGamer)
So here is the improved version of the song !!!

Ab Db Gb B Eb Ab (note that the main riffs only use the bottom 3 strings)

t = Triplet (gallop)
^ = bend
. = palm mute
" = tremolo pick

(if tuning the stings down with the tuner isn't working use the open palm
mutes on the lowest string to tune that to the song, and then tune the others
down accordingly. That's how I (Darkling83) figured out the tuning. This requires a good
ear though)

Riff A (intro) - you can also do the second part trill on 11h14p11h14p11h14p11h14p11h14
the 2nd string if you like

 [[ first half x2, second half x2 ]]
 |---------------------------------------||------------------------------------|
 |---------------------------------------||------------------------------------|
 |---------------------------------------||------------------------------------|
 |---------------------------------------||-------------5h8p5h8p5h8p5h8p5h8----|
 |--7-----------7h10p7h10p7h10p7h10p7h10-||--7---------------------------------|
 |----10--8--7---------------------------||----10--8--7------------------------|
      .   .  .                                     .   .  .

Riff B1 (those are 10's)
 [[ Play B1 x6 in the beginning, then B2 x2 ]]
|-------------------------------------------|
|-------------------------------------------|
|-------------------------------------------|
|-------------------------------------------|
|--7---------t777---t101010-----------------|
|----10-8-7-------0----------0-0-0-0-0-0-0--|
     .  . .   ... .  . . .   . . . . . . .

Riff B2
[[ attention: the 6 isn't muted. ]]
|----------------------------------------|
|----------------------------------------|
|----------------------------------------|
|-------------------t888-----------------|
|--7--------t777-------------------------|
|----10-8-7------0-------0-0-0-6-0-0-0---|
     .  . .  ... .   ... . . .   . . .

Riff C (verse) x2
|-----------------------------------|-----------------------------------||
|-----------------------------------|-----------------------------------||
|-----------------------------------|-----------------------------------||
|-----------------------------------|----------------6------------------||
|--4---------------5-----5----------|--4-------------4-----8------------||
|----5-4-3-0-0-0-0-3-0-0-3-0-0-0-0--|----5-4-3-0-2-3---0-0-6-0-0-0-0----||
     . . . . . . .   . .   . . . .       . . . . . .   . .   . . . .

the play:
Riff B1 x2
Riff B2 x2
Riff C x2

Riff D (chorus) x 2
|-----------------------------------|--------------------------------------------------|
|-----------------------------------|--------------------------------------------------|
|-----------------------------------|--------------------------------------------------|
|---------------5-------------------|----------------------2h5p2h5p2h5p2h5----3--------|
|-----------------66664-------------|------------------5/4--------------------1--------|
|-33333333-0-0---------0-666640-----|-33333333-0-0-0-0-3/2----------------0-0----------|
  ........ . .    ...... ......       ........ . . . .                    . .

then play:
Riff B1 x2
Riff B2 x2
Riff C x2
Riff D x4
Riff A (part 1 x2, then part 2 once, then part 1 again but it's cut off !!!)

At the end of Riff A the last 2 whole beats are cut off and instead you do an open palm
it's easier to listen to the song and get the timing it's pretty obvious when this happens.

|---------|
|---------|
|---------|
|---------|
|--2--2---|
|--0--0---|
   .  .

Riff E (Bridge) x4


|-----------------------------------|------------------------------------|
|-----------------------------------|------------------------------------|
|-----------------------------------|------------------------------------|
|-----------------------------------|--------------------------3-4-------|
|------------------3-----3-----2----|------------------3-0-5-0-----5-4-3-|
|--5-2-2-2-2-2-2-2---2-2---2-2---2--|--5-2-2-2-2-2-2-2-------------------|
     . . . . . . .   . .   . .   .       . . . . . . .   .   .

[[ The climb is probably not correct, but someone could correct that...]]
|-----------------------------------|------------------------------------|
|-----------------------------------|------------------------------------|
|-----------------------------------|------------------------------------|
|----------6-7-------------7-8------|----------8-9-----------------------|
|--3-0-5-0-----8-7-6-0-7-0-----9-8--|--7-0-8-0-----10-9-8----------------|
|-----------------------------------|------------------------------------|
     .   .           .   .               .   .

Riff F (end Bridge) x 4
[[ The initial triplet isn't played when you start this riff ]]
|-----------------------------|
|-----------------------------|
|-----------------------------|
|-----------------------------|
|------------------10//-------|
|--000-9---//0-0-9------000---|
   ...         .        ...

Riff G x 4
Plague Leads to deaaaaath...
[[ Tremolo picked ]]
|-----------------------------|
|-----------------------------|
|-----------------------------|
|-----------------------------|
|---------------10"---7"------|
|--9"----0"-6"----------------|

Riff G (Behind the solo) x2
 [[ Play the first half x2 then the second half x2 per repitition ]]
|-------------------------------------|-------------------------------------------|
|-------------------------------------|-------------------------------------------|
|-------------------------------------|-------------------------------------------|
|--5-------555------------------------|-------------------------------------------|
|----7-6-5-------444------------------|--7---------t777---t101010-----------------|
|--------------0-----6-6-6-6-6-6-6----|----10-8-7-------0----------0-0-0-0-0-0-0--|
     . . .     .     . . . . . . .         .  . .       .          . . . . . . .

Then play:
Riff C x2
Riff D x4

[[ The last powerchord is kept, the fade out is with a whammy bar ]]
Outro
|-------------------------------|
|-------------------------------|
|-------------------------------|
|-------------------------------|
|--7---------4------2----5------|
|----10-8-7----7-5--0----3------|
     .  . .    . .

I hope you guys will have a good time playing this song !!!
comments
print report bad tab
16 comments total. Showing first comments.
0 reply
Darkling83 wrote on May 8 2009, 06:33 pm

thanks for the corrections, this looks pretty solid to me and definitely covers up the holes I still had in my original tab. Now with our combined forces we have a near 100% accurate tab of this song! \m/

0 reply
Metalx666xFreak wrote on May 9 2009, 06:40 am

We did a good job bro ;-)

0 reply
Metalx666xFreak wrote on May 9 2009, 06:41 am

We did a good job bro ;-)

I want to post or [tab]
guest
You may want to rate the tab now too:
select rating
Please do not post tabs as comments. Select "correction" instead!