Oops, an error
Loading. Please wait.

Evisceration Plague Tab

version 3
version 3

Whole song

Interactive

1,500 views 3 this week
no commentswrite comment
1 2 3 4 5
x 3
add to favorites
launch autoscroll
font size
0
reset
how to read this tab
guitar tuner
Autoscroll
slow
fast
+/-
esc
set tempo
stop
Help us to improve Ultimate-Guitar.com Take our survey!
×
Cannibal Corpse
Evisceration Plague
Evisceration Plague

.  - palm mute
\  - slide down to
/  - slide up to
h  - hammer on
p  - pull off
t  - tap
ph - pinch harmonic
~  - vibrato
b  - bend
r  - release bend
tr - trill
x  - mute
*  - comment

Tuning: G# C# F# B D# G#

Guitar I - Pat O'Brien (Right channel)
Guitar II - Rob Barret (Left channel)


------------------------------------------------
* I've already tabbed this song but Ive been
  playing it wrong by a little bit. I think
  that the intro could be more detailed as well.
------------------------------------------------



Figure 1A x2       Figure 1B x1
|----------------| |-------------------|
|----------------| |-------------------|
|----------------| |-------------------|
|----------x12---| |------------x12----|
|-7-------7h10p7-| |-7-------7h10t13p7-|
|---9-7-6--------| |---9-7-6-----------|
    . . .              . . .



Figure 1C x1
|--------------------------------------|
|--------------------------------------|
|--------------------------------------|
|------------x8-----------------x4-----|
|-7-------7h10t13p7----------7h10t19p7-|
|---9-7-6------------------------------|
    . . .




Figure 2A x6
|-------------------------------------|
|-------------------------------------|
|-------------------------------------|
|-------------------------------------|
|-7-------7777---101010---------------|
|---9-7-6------0--------0-0-0-0-0-0-0-|
    . . . .... . . . .  . . . . . . .



Figure 2B x2
|----------------------------------|
|----------------------------------|
|----------------------------------|
|----------------888---------------|
|-7-------7777---------------------|
|---9-7-6------0-----0-0-0-6-0-0-0-|
    . . . .... . ... . . .   . . .



Figure 3 x2
|---------------------------------|
|---------------------------------|
|---------------------------------|
|-----------------5-----5---------|
|-4---------------5-----5---------|
|---6-4-3-0-0-0-0-3-0-0-3-0-0-0-0-|
    . . . . . . .   . .   . . . .

----------------------------------|
----------------------------------|
----------------------------------|
------------------------8---------|
--4-------------4-------8---------|
----6-4-3-0-1-3---0-0-0-6-0-0-0-0-|
    . . . . . .   . . .   . . . .



Repeat Figure 2A x2
Repeat Figure 2B x2
Repeat Figure 3  x2



Figure 4 x2
|---------------------------------------------------------|
|---------------------------------------------------------|
|---------------------------------------------------------|
|---------------------------------------------------------|
|--------------10-----------------------------------------|
|-33333333-0-0----0---12-12-10-10-9---0---9-9-7-7-6---0---|
  ........ . .    .   .  .  .  .  .   .   . . . . .   .


|------------------------------------------|
|------------------------------------------|
|------------------------------------------|
|--------------------------------------8---|
|------------------4h7p4-7h10p7h10-----8---|
|-33333333-0-0-0-0-----------------0-0-6-0-|
  ........ . . . .                 . .   .



Repeat Figure 2A x2
Repeat Figure 2B x2
Repeat Figure 3  x2
Repeat Figure 4  x4
Repeat Figure 1A x2
Repeat Figure 1B x1



Figure 5 x1
|--------------------------------------|
|--------------------------------------|
|--------------------------------------|
|------------x4------------------------|
|-7-------7h10t19p7--------------------|
|---9-7-6--------------0-------0-------|
    . . .              .       .



Figure 6A x4
|---------------------------------|
|---------------------------------|
|---------------------------------|
|---------------------------------|
|---------------3-----3-----2-----|
|-5-3-2-2-2-2-2---2-2---2-1---1-2-|
    . . . . . .   . .   . .   . .

----------------------------------|
----------------------------------|
----------------------------------|
----------------------------------|
----------------3---6---8-9-6-----|
--5-3-2-2-2-2-2---5---5-------8-7-|
    . . . . . .   .   .



Figure 6B x1
|-------------------------------------------------|
|-------------------------------------------------|
|-------------------------------------------------| GUITAR I
|-------------------------------------------------|
|---10---12-13-10------------11----13-14-11-------|
|-9----9----------12-11---10----10----------13-12-|
  .    .                  .     .

--------------------------|
--------------------------|
--------------------------|
--------------------------|
-----12----14-15-12-------|
--11----11----------14-13-|
  .     .



|---------------------------------------|
|---------------------------------------|
|---------------------------------------| GUITAR II
|---------------------------------------|
|---7---9-10-7---------8---10-11-8------|
|-6---6--------9-8---7---7---------10-9-|
  .   .              .   .


----------------------|
----------------------|
----------------------|
----------------------|
----9---11-12-9-------|
--8---8---------11-10-|
  .   .



Figure 7A x4
|-----------------------------------|
|-----------------------------------|
|-----------------------------------|
|-----------------------------------|
|-----------------10~\--------------|
|-9~\-----0---9~----------0---0000--|
          .               .   ....



Figure 7B x4
|----------------------------------------------|
|----------------------------------------------|
|----------------------------------------------|
|----------------------------------------------|
|--------------------1010101010101010-77777777-|
|-99999999-0000-9999---------------------------|



Guitar I plays this on the third and fourth times
|--------------------------------------|
|--------------------------------------|
|--------------------------------------|
|--------------------------------------|
|--------------------77777777----------|
|-99999999-0000-6666----------99999999-|

-----------------------------------------------|
-----------------------------------------------|
-----------------------------------------------|
---------------------88888888------------------|
----------------7777----------1010101010101010-|
--66666666-3333--------------------------------|



Figure 8 x2
|-----------------------------------------|
|-----------------------------------------|
|-----------------------------------------|
|-----------------------------------------|
|-10---------10101010-------8-8-8-8-8-8-8-|
|----12-10-9----------0-999-6-6-6-6-6-6-6-|
     .  .  . . . . .  . ... . . . . . . .



Repeat Figure 2A x2
Repeat Figure 8  x2
Repeat Figure 2A x2
Repeat Figure 3  x2
Repeat Figure 4  x4



Figure 9 x1
|-------------------------|
|-------------------------|
|-------------------------|* Let the last chord ring
|-----------------------2-|
|---7---------4---------2-|
|-----9-7-6-----6---4---0-|
      . . .     .   .



End the song with this
|-------------------------|* Let the chord ring
|-------------------------|  while slowly rasing
|-------------------------|  the tremelo bar
|-5-----------------------|
|-5-----------------------|
|-3-----------------------|

DONE!
Suggest correction
Give kudos to tab author, rate the tab!
1 2 3 4 5
comments
print report bad tab
guest
You may want to rate the tab now too:
select rating
Wanna post a correction for this tab? Suggest correction