Oops, an error
Loading. Please wait.

Festering In The Crypt Tab

version 2
version 2

Whole song

Interactive

4,913 views 1 this week
1 commentread comment
1 2 3 4 5
excellent!
x 3
add to favorites
launch autoscroll
font size
0
reset
how to read this tab
guitar tuner
Tab Pro tools
  • play this tab
  • loop segment
  • change instrument
  • show fretboard
  • metronome
×
Best way to learn
"Festering In The Crypt"
Autoscroll
slow
fast
+/-
esc
set tempo
stop
Contributor
Cannibal Corpse
“Festering in the Crypt”
The Wretched Spawn
Tabbed by Lord Pasku                                                    [blackpasku@msn.com]


Tuning Bb (Bb-Eb-Ab-Db-F-Bb)

  Riff1            x3   Rhythm Figure1      x1
||-------------------|>|--------------------------|
||-------------------|>|--------------------------|
||-------------------|>|--------------------------|
||------/5--4~-------|>|------/5--4~--------------|
||-------------------|>|--------------------------|
||-0--2--------0--2~-|>|-0--2--------2--1~---1--0-|
||
||-------------------|>|--------------------------|
||-------------------|>|--------------------------|
||-------------------|>|--------------------------|
||------/5--4~-------|>|------/5--4~---------3--2-|
||-------------------|>|--------------------------|
||-0--2--------0--2~-|>|-0--2--------2--1~--------|

Riff1 x3

 Rhythm Figure2          x1
|--------------------------|
|--------------------------|
|--------------------------|
|------/5--4~-4--3----3--2-|
|--------------------------|
|-0--2--------2--1----1--0-|
|
|--------------------------|
|--------------------------|
|--------------------------|
|------/5--4~---------3--2-|
|--------------------------|
|-0--2--------2--1~--------|

 Riff2                              x3   Rhythm Figure3            x1
|-------------------------------------|>|----------------------------|
|-------------------------------------|>|----------------------------|
|-------3/4b\3------------------------|>|-------3/4b\3---------------|
|-------------------------------------|>|----------------------------|
|-------------------------------------|>|----------------------------|
|-0--2----------0--2~-2-2-2-2-2-2-2-2-|>|-0--2----------2--1~---1--0-|
|                     PM. . . . . . .|
|-------------------------------------|>|----------------------------|
|-------------------------------------|>|----------------------------|
|-------3/4b\3------------------------|>|-------3/4b\3---------------|
|-------------------------------------|>|-----------------------3--2-|
|-------------------------------------|>|----------------------------|
|-0--2----------0--2~-2-2-2-2-2-2-2-2-|>|-0--2----------2--1~--------|
                      PM. . . . . . .|
Riff1 x3
Rhythm Figure2 x1
Riff2 x3
Rhythm Figure3 x1

 Riff3      x8   Riff4
|-------------|>|-------------------------------------------------------------|
|-------------|>|-------------------------------------------------------------|
|-------------|>|-------------------------------------------------------------|
|-----3---2---|>|-------------------------------------------------------------|
|-------------|>|-----------------/-3-\-----------------/-3-\-----------------|
|-0-2---2---1-|>|-0-0-0-0-0-0-0-0-3-2-0-2-2-2-2-2-2-2-2-6-5-0-6-6-6-6-6-6-6-6-|

                      x4
-----------------------|
-----------------------|
-----------------------|
-----------------------|
-/-3-\-----------------|
-3-2-0-0-0-0-0-0-0-0-0-|

Riff3 x4
Riff4 x4
Riff3 x8

 Riff5                                    x4
|-------------------------------------------|
|-------------------------------------------|
|-------------------------------------------|
|---------------------------------3-------2-|
|-----------------------------------/-3-\---|
|-0-0-0-0-0-0-0-0-0-0-0-0-0-0-0-0---0-0-0---|
  PM. . . . . . . . . . . . . . .   . . .|

 Solo                                  x3
|----------------------------------------|
|----------------------------------------|
|----------------------------------------|
|------/5-5-5-4-4-4----------------------|
|----------------------------------------|
|-0--2--------------0--2-2-2-2-2-2-2-2-2-|
|                        PM. . . . . . .|
|                                         t           t
|-12-12-12-14-14-14-15br--12-12-12-14-14-19p14p12h14h19p14p12h14-|
|----------------------------------------------------------------|
|----------------------------------------------------------------|
|----------------------------------------------------------------|
|----------------------------------------------------------------|
|----------------------------------------------------------------|

 Lead Figure1                  x1
|--------------------------------|
|--------------------------------|
|--------------------------------|
|------/5-5-5-4-4-4--------------|
|--------------------------------|
|-0--2--------------2--1~---1--0-|
|
|-12-12-12-14-14-14-15br--14-14-14-13-13-13~--13-13-13-12-12-12\-|
|----------------------------------------------------------------|
|----------------------------------------------------------------|
|----------------------------------------------------------------|
|----------------------------------------------------------------|
|----------------------------------------------------------------|

Solo x3
Lead Figure1 x1

 Riff6                                    x4
|-------------------------------------------|
|-------------------------------------------|
|-------------------------------------------|
|-3-------2---------------------------------|
|---/-3-\-----------------------------------|
|---0-0-0---0-0-0-0-0-0-0-0-0-0-0-0-0-0-0-0-|
    PM. .   . . . . . . . . . . . . . . . .|

 Riff7                            x4
|-----------------------------------|
|-----------------------------------|
|-----------------------------------|
|-----------------3-------2---------|
|-------------------/-3-\-----------|
|-0-0-0-0-2-2-2-2---2-2-2---1-1-1-1-|
  PM. . . . . . .   . . .   . . . .|

Riff1 x3
Rhythm Figure2 x1
Riff2 x3
Rhythm Figure3 x1

 Rhythm Figure4          x1
|--------------------------|
|--------------------------|
|--------------------------|
|-2---4---5---4---2---4~~~-|
|-2---4---5---4---2---4~~~-|
|-0---2---3---2---0---2~~~-|

LEGEND:
PM    = palm mute
x     = ghost note
/     = slide down
\     = slide up
h     = hammer on
p     = pull off
b     = bend
br    = bend and release
/-#-\ = triplet
~     = vibrato
*     = natural harmonic
[#]   = artificial harmonic
(tr#) = trill
t     = tapping
comments
We did not receive enough feedback on this tab! Please rate:
print report bad tab
1 2 3 4 5
1 comment total.
0 reply
Pasku wrote on January 9 2006, 11:00 am

This my first tab, but I think it's great.
Bye

I want to post or [tab]
guest
You may want to rate the tab now too:
select rating
Please do not post tabs as comments. Select "correction" instead!