Oops, an error
Loading. Please wait.

Five Nails Through The Neck Tab

version 1
version 1

Whole song

Interactive

5,953 views 1 this week
3 commentsread comments
1 2 3 4 5
excellent!
x 6
add to favorites
launch autoscroll
font size
0
reset
how to read this tab
guitar tuner
Tab Pro tools
  • play this tab
  • loop segment
  • change instrument
  • show fretboard
  • metronome
×
Best way to learn
"Five Nails Through The Neck"
Autoscroll
slow
fast
+/-
esc
set tempo
stop
Contributor
Band: Cannibal Corpse
Album: Kill
Song: Five Nails Through The Neck

Copyright (c) Metal Blade 2006
Version 1.0 – 23.04.2006


Transcribed By: Robert Nowak
Email: robert.n74@web.de
Bands: unchallengedhate.de / japanische-kampfhoerspiele.de

. - palm mute / - slide up to
\ - slide down to ~ - vibrato
h - hammer on b - Bend
p - pull off Suffixes for bend
t - tap f - full bend h - half bend
ph - pinched harmonic q - quarter bend t - tap bend
* - see comment ^ - Hold bend r release bend
x - Stuccatto ~ - vibrato bend
, - slight palm mute () - ghost note, sustained note
" - tremolo note <> - Trill

Tuning 6 half steps down: Bb-Eb-Ab-Db-F-Bb

guitar one = left channel
guitar two = right channel

RIFF 1a (0:00)
|------------------------------------------|
|------------------------------------------|
|------------------------------------------|
|------------------------------------------|
|-----------------4444--------55554444-----|
|-9-0-7-0-6-0-3333----66664444--------3333-|
  . . . . . .

 ------------------------------------------|
 ------------------------------------------|
 ------------------------------------------|
 ------------------------------------------|
 -------------7-------------4-------7---10-|
 -9-0-7-0-6-0---5-6-3-0-1-3---0-4-6---0----|
  . . . . . .   . . . . . .   . . .   .

 --------------------------------------|
 --------------------------------------|
 --------------------------------------|
 -----------------------------2--2--2--|
 -------------4444-----2------2--2--2--|
 -9-0-1-0-3-0-----3333-0------0--0--0--|
  . . . . . .                 .  .  .

 ---------------------------------------------------|
 ---------------------------------------------------|
 ---------------------------------------------------|
 ---------------------------------------------------|
 ---------------------7-------------4-2-1-------4p0-|
 -3-0-4-0-9-0-7-0-6-0---5-6-3-0-1-3-------3-0-1-----|
  . . . . . . . . . .   . . . . . .       . . .

RIFF 1b (0:10)
|------------------------------------------|
|------------------------------------------|
|------------------------------------------|
|------------------------------------------|
|-----------------4444--------55554444-----|
|-1-0-3-0-6-0-3333----66664444--------3333-|
  . . . . . .

 ------------------------------------------|
 ------------------------------------------|
 ------------------------------------------|
 ------------------------------------------|
 -------------7-------------4-------7---10-|
 -9-0-7-0-6-0---5-6-3-0-1-3---0-4-6---0----|
  . . . . . .   . . . . . .   . . .   .

 --------------------------------------|
 --------------------------------------|
 --------------------------------------|
 -----------------------------2--2--2--|
 -------------4444-----2------2--2--2--|
 -9-0-1-0-3-0-----3333-0------0--0--0--|
  . . . . . .                 .  .  .

 -------------------------------------------------|
 -------------------------------------------------|
 -------------------------------------------------|
 -------------------------------------------------|
 ---------------------7-------------4-2-1-------4-|
 -3-0-4-0-9-0-7-0-6-0---5-6-3-0-1-3-------3-0-1---|
  . . . . . . . . . .   . . . . . .       . . .

RIFF 2 (0:21)
|--------------------------------------------------------------------------------|
|--------------------------------------------------------------------------------|
|--------------------------------------------------------------------------------|
|2h3---------------------------------4\3-2h3---------------------------------4\3-|
|---55------44444444444444444444-2h3-2\1----55------44444444444444444444-2h3-2\1-|
|-----44-1h3---------------------0h1----------44-1h3---------------------0h1-----|

 4 = guitar one / (2) = guitar 2
 --------------------------------------------------------------------------------|
 --------------------------------------------------------------------------------|
 --------------------------------------------------------------------------------|
 2h3-------(22222222222222222222)----4\3-2h3-------(22222222222222222222)----4\3-|
 ---55------44444444444444444444-2h3-2\1----55------44444444444444444444-2h3-2\1-|
 -----44-1h3---------------------0h1----------44-1h3---------------------0h1-----|

RIFF 1c (0:32)
|------------------------------------------|
|------------------------------------------|
|------------------------------------------|
|------------------------------------------|
|-----------------4444--------55554444-----|
|-9-0-7-0-6-0-3333----66664444--------3333-|
  . . . . . .

 ------------------------------------------|
 ------------------------------------------|
 ------------------------------------------|
 ------------------------------------------|
 -------------7-------------4-------7---10-|
 -9-0-7-0-6-0---5-6-3-0-1-3---0-4-6---0----|
  . . . . . .   . . . . . .   . . .   .

 --------------------------------------|
 --------------------------------------|
 --------------------------------------|
 -----------------------------2--2--2--|
 -------------4444-----2------2--2--2--|
 -9-0-1-0-3-0-----3333-0------0--0--0--|
  . . . . . .                 .  .  .

 -------------------------------------------------|
 -------------------------------------------------|
 -------------------------------------------------|
 -------------------------------------------------|
 ---------------------7-------------4-2-1-------4-|
 -3-0-4-0-9-0-7-0-6-0---5-6-3-0-1-3-------3-0-1---|
  . . . . . . . . . .   . . . . . .       . . .

again RIFF 2  (0:42)

RIFF 3 (0:53)
|----------------------------------------------------------------------------|
|----------------------------------------------------------------------------|
|----------------------------------------------------------------------------|
|-5-----------4-----------------5-----------4--------------------------------|
|----4--3--6-----------3-----4-----4--3--6-----------3-----4--------------7--|
|----------------2--5-----3--------------------2--5-----3-----0--6--8--9-----|
     .  .  .     .  .     .        .  .  .     .  .     .     .  .  .  .

RIFF 4 (0:59) guitar one
|------------------------------------------|
|------------------------------------------|
|------------------------------------------|
|-------6-----7-------6-----10-------3---4-|
|-0-5-8---0-6---0-5-8---0-9----0-2-5---3---|
|------------------------------------------|
  . . .   . .   . . .   . .    . . .   .

RIFF 4 (0:59) guitar two
|------------------------------------------|
|------------------------------------------|
|------------------------------------------|
|-------6-----7-------6-----7--------6---7-|
|-0-5-8---0-6---0-5-8---0-6----0-5-8---6---|
|------------------------------------------|
  . . .   . .   . . .   . .    . . .   .

RIFF 5 (1:05)
|-------------------------------------------|
|-------------------------------------------|
|-------------------------------------------|
|-----------------------8-7-----------------|
|-------4---------7-----6-5-9-9-8-6-6-5-4-4-|
|-0-4-7---6-0-6-9---9\------7-7-6-4-4-3-2-2-|
  . . .   . . . .       . . . . . . . . . .

again RIFF 4 (1:08)
again RIFF 5 (1:13) 2 times

RIFF 6 (1:20)
|------------------------------------------------------------------|
|------------------------------------------------------------------|
|------------------------------------------------------------------|
|--------------------------------------8-7-6-5---------------------|
|-------4---------7------------9-8-7-6---------9-5-0-7---9-5-0-7---|
|-0-4-7---6-0-6-9---9-10-9-8-7-------------------------0---------0-|
  . . .   . . . .   . .  . . .

 ----------------------------------------------------------------|
 ----------------------------------------------------------------|
 ----------------------------------------------------------------|
 -4-----4-----4-----4-----4-----4-----4-----4-----4--4--4--4--4--|
 -5-----5-----5-----5-----5-----5-----5-----5-----5--5--5--5--5--|
 -6---0-6---0-6---0-6---0-6---0-6---0-6---0-6---0-6--6--6--6--6--|
      .     .     .     .     .     .     .     .

RIFF 7 (1:33) guitar one / 4 times
|---------------------------------------------|
|---------------------------------------------|
|--8------------------------------------------|
|--9------------------------------------------|
|-10-1010101010101010101010101010101010101010-|
|---------------------------------------------|

RIFF 7 (1:33) guitar two / first 2 times
|---------------------------------------------|
|---------------------------------------------|
|--8------------------------------------------|
|--9------------------------------------------|
|-10------------------------------------------|
|---------------------------------------------|

RIFF 7 guitar two / last 2 times
|-------------------------|
|-------------------------|
|--8----------------------|
|--9-99999999999999999999-|
|-10----------------------|
|-------------------------|

BREAK (1:37)
|--------------------|
|--------------------|
|-6------------------|
|-6---6--4--6--4--8--|
|-4---6--4--6--4--8--|
|-----4--2--4--2--6--|
      .  .  .  .

RIFF 8 (1:40) first time only
|---------------------------------|
|---------------------------------|
|---------------------------------|
|-----------------2---5-------2p0-|
|-5\3---------5-------------------|
|-3\1-0-0-0-0-3-0---0---6-0-3-----|
      . . . .   .   .   . . .

             7 times
|---------------------------------|
|---------------------------------|
|---------------------------------|
|-----------------2---5-------2p0-|
|-5-3---------5-------------------|
|-3-1-0-0-0-0-3-0---0---6-0-3-----|
      . . . .   .   .   . . .

RIFF 9 (2:04)
|-----------------------------------------------------------------|
|-----------------------------------------------------------------|
|-----------------------------------------------------------------|
|------------------------------2p0--------------------------------|
|-5-3---------5---77774444---------5-3----------------------------|
|-3-1-0-0-0-0-3-0----------0-3-----3-1-0-3-0-6-774466663344441133-|
      . . . .   .          . .         . . . .

 -----------------------------------------------------------------|
 -----------------------------------------------------------------|
 -----------------------------------------------------------------|
 ---------------------8888---5------------------------------------|
 -5-3---------5---4444-----------5-3------------------------------|
 -3-1-0-0-0-0-3-0----------0---6-3-1-0-3-0-6-77446699667710107799-|
      . . . .   .          .         . . . .

again RIFF 8 (2:17)
again RIFF 9 (2:29)

RIFF 7 (2:41) guitar one
|---------------------------------------------|
|---------------------------------------------|
|--8------------------------------------------|
|--9------------------------------------------|
|-10-1010101010101010101010101010101010101010-|
|---------------------------------------------|

RIFF 7 (2:41) guitar two
|-------------------------|
|-------------------------|
|--8----------------------|
|--9-99999999999999999999-|
|-10----------------------|
|-------------------------|

RIFF 10 (2:46) / SOLO
|-----------------------------------------------------------------------------|
|-----------------------------------------------------------------------------|
|-----------------------------------------------------------------------------|
|-----------------------------------------------------------------------------|
|---10-------------------------10-------------10-------------------------10---|
|-6----0-9-0-6-0-6-0-9-0-6-0-6------9-0-6-0-6----0-9-0-6-0-6-0-9-0-6-0-6------|
  .    . . . . . . . . . . . .      . . . . .    . . . . . . . . . . . .

 --------------------------------------------------------------------|
 --------------------------------------------------------------------|
 --------------------------------------------------------------------|
 --------------------------------------------------------------------|
 -----------10-------------------------10-------------10-------------|
 -9-0-6-0-6----0-9-0-6-0-6-0-9-0-6-0-6------9-0-6-0-6----0-9-0-6-0-6-|
  . . . . .    . . . . . . . . . . . .      . . . . .    . . . . . .

 ----------------------------|
 ----------------------------|
 ----------------------------|
 ----------------------------|
 -------------10-------------|
 -0-9-0-6-0-6------9-0-6-0-6-|
  . . . . . .      . . . . .

again RIFF 7 (2:56)

BREAK (3:02)
|-----------------------------------|
|-----------------------------------|
|-6---------------------------------|
|-6---6--4--6--4--8--4--4--4--4--4--|
|-4---6--4--6--4--8--5--5--5--5--5--|
|-----4--2--4--2--6--6--6--6--6--6--|
      .  .  .  .  .

again RIFF 1c (3:06)
again RIFF 2  (3:17)

ending (3:28)
|-----------------------------||
|-----------------------------||
|-------------ph--------------||
|-5-----------4-~~~~~~~~~~~~~-||
|----4--3--6------------------||
|-----------------------------||
     .  .  .

END
comments
print report bad tab
3 comments total.
0 reply
3lusiv3 wrote on May 24 2007, 05:39 am

I just need to point out the fact that I didn't tab this, and all credit goes to the guys at Rivers of Gore. This site just really needed it.

0 reply
gwar4ulz wrote on July 14 2007, 04:29 pm

i agree ive been looking for this one for awile

0 reply
UGHm.o.w. wrote on February 25 2008, 04:01 pm

Superstoked that this song is here!

I want to post or [tab]
guest
You may want to rate the tab now too:
select rating
Please do not post tabs as comments. Select "correction" instead!