Oops, an error
Loading. Please wait.
We have an official Hammer Smashed Face tab made by UG professional guitarists. Check out the tab »
×

Hammer Smashed Face bass

version 5
version 5

Whole song

1,798 views 12 this week
1 commentread comment
1 2 3 4 5
x 6
add to favorites
×
Save as Personal and add changes to this tab that will be seen only by you. Learn more ›
×
You can save this tab as Personal to edit and correct it or add notes. All changes will be seen only by you. Learn more »
launch autoscroll
font size
0
reset
guitar tuner
backing track
0:00
0:00
edit
Autoscroll
slow
fast
+/-
esc
set tempo
stop
-------------------------------------------------------------------------------
                             HAMMER SMASHED FACE - Cannibal Corpse
-------------------------------------------------------------------------------
Tabbed by: Killjoy Bassist
E-mail: killjoybassist@gmail.com

Tuning: Half-Step Down

Hey guys, leave a comment letting me know if you want me to make a
play-through video with this tab!

For those who aren't sure: *0* is a staccato note. I added that into the key on the bottom with this update.

   Intro
Gb|---------------------------------------------------------------------------|
Db|-----------------------------------------------------5544------------------|
Ab|---------------------------------------------------------------------------|
Eb|-*0*-*0*-*0*-6/--*0*-*0*-*0*-6/--*0*-*0*-*0*-6/-0122-----------------------|

Gb|---------------------------------------------------------------------------|
Db|-----------------------------------------------------5544------------------| x2
Ab|---------------------------------------------------------------------------|
Eb|-000-000-000-6/--000-000-000-6/--000-000-000-6/-0122-----------------------|

Gb|---------------------------------------------------------------------------|
Db|---------------------------------------------------------------------------|
Ab|---------------------------------------------------------------------------|
Eb|-*0*-*0*-*0*-6/--*0*-*0*-*0*-6/--*0*-*0*-*0*-6/----------------------------|

   Bass Solo/Verse
Gb|-----------------|
Db|-----9-----------| x8
Ab|-7-----8---8-----|
Eb|---6-----7---0h6-|

Gb|-----------------|
Db|-----4-----------| x4
Ab|-2-1---1-3-------|
Eb|-----------2-0-1-|

Gb|-----------------|
Db|-----9-----------| x4
Ab|-7-----8---8-----|
Eb|---6-----7---0h6-|

   Pre Chorus
Gb|-----------------|
Db|-----------------| x8
Ab|-------1---------|
Eb|-2h3p2---0-------|

Gb|-----------------|
Db|-----------------|
Ab|-----------------|
Eb|-3-2-0-----------|


************************************************************************************************************
Quick note about the way I tab the Chorus's:
         The hammer on and pull of parts I tabbed on the Db string are actually played
         on the Ab string on the record. For some reason whenever I play the song I 
         prefer to play it up there, I guess I think it sounds cooler and pushes the
         bass through more. Keep that in mind when you learn the song.
************************************************************************************************************

   Chorus
Gb|---------------------------------------------------------------------------|
Db|-7h10p7-6h9p6---------------3h6p3-2h5p2------------------------------------| x2
Ab|------------------5------4------------------1------------------------------|
Eb|--------------7-6----7-6----------------3-2----3-2-0-----------------------|

Gb|---------------------------|
Db|-2h5p2-1h4p1---------------|
Ab|-------------------1-------| x4
Eb|-------------2h3p2---0-----|

Gb|-----------------|
Db|-----------------|
Ab|-----------------|
Eb|-3-2-0-----------|

Gb|---------------------------------------------------------------------------|
Db|-7h10p7-6h9p6---------------3h6p3-2h5p2------------------------------------| x2
Ab|------------------5------4------------------1------------------------------|
Eb|--------------7-6----7-6----------------3-2----3-2-0-----------------------|

Gb|-----------------|
Db|-----------------| x8
Ab|-------1---------|
Eb|-2h3p2---0-------|

   Verse 2
Gb|---------------------------------------------------------------------------|
Db|-----------------------------------------------------5544------------------|
Ab|---------------------------------------------------------------------------|
Eb|-*0*-*0*-*0*-6/--*0*-*0*-*0*-6/--*0*-*0*-*0*-6/-0122-----------------------|

( Gb|-----------------|    Gb|-----------------| )
( Db|-------5544------| x3 Db|-----------------| )  x4
( Ab|-----------------|    Ab|-----------------| )
( Eb|-0122------------|    Eb|-0-1-2--0-1-2----| )

Gb|-----------------|
Db|-----4-----------| x4
Ab|-2-1---1-3-------|
Eb|-----------2-0-1-|

Gb|-----------------|
Db|-----9-----------| x4
Ab|-7-----8---8-----|
Eb|---6-----7---0h6-|

Gb|-----------------|
Db|-----------------| x8
Ab|-------1---------|
Eb|-2h3p2---0-------|

Gb|-----------------|
Db|-----------------|
Ab|-----------------|
Eb|-3-2-0-----------|

   Chorus 2
Gb|---------------------------------------------------------------------------|
Db|-7h10p7-6h9p6---------------3h6p3-2h5p2------------------------------------| x2
Ab|------------------5------4------------------1------------------------------|
Eb|--------------7-6----7-6----------------3-2----3-2-0-----------------------|

Gb|---------------------------|
Db|-2h5p2-1h4p1---------------|
Ab|-------------------1-------| x4
Eb|-------------2h3p2---0-----|

Gb|-----------------|
Db|-----------------|
Ab|-----------------|
Eb|-3-2-0-----------|

Gb|---------------------------------------------------------------------------|
Db|-7h10p7-6h9p6---------------3h6p3-2h5p2------------------------------------| x2
Ab|------------------5------4------------------1------------------------------|
Eb|--------------7-6----7-6----------------3-2----3-2-0-----------------------|

Gb|-----------------|
Db|-----------------| x8
Ab|-------1---------|
Eb|-2h3p2---0-------|

   Bridge
Gb|---------------------------------------------------------------------------|
Db|---------------------------------------------------------------------------|
Ab|---------------------------------------------------------------------------|
Eb|-*0*-*0*-*0*-6/--*0*-*0*-*0*-6/--*0*-*0*-*0*-6/----------------------------|

Gb|-----------------|
Db|-------5-4-------| x12
Ab|-----------------|
Eb|-0-0-0-----1-2-3-|

Gb|----------------------------------------------------------------------------|
Db|----------------------------------------------------------------------------| x2
Ab|-7-7-7-7-10-10-7-7-6-6-9-9-----5---3-3-3-3-6-6-3-3-2-2-5-5-----1------------|
Eb|---------------------------7-6-----------------------------3-2--------------|

Gb|------------------------------------------|
Db|------------------------------------------|
Ab|-2-2-2-2-5-5-5-5-1-1-1-1-4-4-4-4-----1----| x4
Eb|---------------------------------3-2------|

Gb|----------------------------------------------------------------------------|
Db|----------------------------------------------------------------------------| x2
Ab|-7-7-7-7-10-10-7-7-6-6-9-9-----5---3-3-3-3-6-6-3-3-2-2-5-5-----1------------|
Eb|---------------------------7-6-----------------------------3-2--------------|

   Chorus
Gb|---------------------------|
Db|-2h5p2-1h4p1---------------|
Ab|-------------------1-------| x4
Eb|-------------2h3p2---0-----|

Gb|-----------------|
Db|-----------------| x8
Ab|-------1---------|
Eb|-2h3p2---0-------|

Gb|---------------------|
Db|---------------------|8
Ab|---------------------|
Eb|-*0*-*0*-*0*-6/-*0*--|

| /  slide up
| \  slide down
| h  hammer-on
| p  pull-off
| ~  vibrato
| +  harmonic
| x  Mute note
| *  Staccato
===============================================================================

            
            
Suggest correction
Creating personal tab
Creating personal tab
You can edit any tab online and save it as your Personal.

You can edit, replace or remove any tab part or add personal notes – all changes will be seen only by you.

Personal tabs can be accessed anytime from any device, even offline.
Learn more »
comments
print report bad tab
1 comment total.
+1 reply
Marcus 90 2,752 Feb 14, 2016 03:55 AM

Finally a good bass tab of this song, nice work man

guest
You may want to rate the tab now too:
select rating
Wanna post a correction for this tab? Suggest correction