Oops, an error
Loading. Please wait.

Hatchet To The Head Tab

version 1
version 1

Whole song

Interactive

1,457 views 3 this week
no commentswrite comment
1 2 3 4 5
3 more votes to show rating
add to favorites
launch autoscroll
font size
0
reset
how to read this tab
guitar tuner
Autoscroll
slow
fast
+/-
esc
set tempo
stop
Help us to improve Ultimate-Guitar.com Take our survey!
×
Author
Difficulty
intermediate
Cannibal Corpse - Gore Obsessed - Hatchet to the Head (2002)

[tuning is B-flat, with standard intervals between strings]

Fig. 1
|---------------------------------------------|----------------|
|---------------------------------------------|----------------|
|---------------------------------------------|-----7-------6--|
|--------------------------------44443333-----|-----5-------4--|
|--3-5-4-3---333322223-5-4-3-3-----------2222-|-0-3-----0-2----|
|--1-3-2-1-----------1-3-2-1-1----------------|----------------|

[gtr. 2 ending]
|-----------------------------------------|
|-----------------------------------------|
|--------------33332222-------------------|
|----------------------1111---/9------/8--|
|--3-5-4-3-3---------------0-3-----0-2----|
|--1-3-2-1-1------------------/7------/6--|

Fig. 2
|----|-----------------------------------------------------------|
|----|-----------------------------------------------------------|
|----|-----------------------------------------------------------|
|----|-------4433----------4433----------4433--------------------|
|----|-3322------22--3322------22--3322------2233----6-----------|
|--1-|-----1-------1-----1-------1-----1---------3344--4-223-221-|

[ending gtr. 1]
|-------------------------------------------------------------------|
|-------------------------------------------------------------------|
|-------------------------------------------------------------------|
|--------4433----------4433----------4433------------------33333333-|
|--3322------22--3322------22--3322------2233----6------------------|
|------1-------1-----1-------1-----1---------3344--223-221----------|

[ending gtr. 2]
|-------------------------------------------------------------------|
|-------------------------------------------------------------------|
|-------------------------------------------------------------------|
|--------4433----------4433----------4433------------------33333333-|
|--3322------22--3322------22--3322------223-------4----------------|
|------1-------1-----1-------1-----1---------------2----------------|

Fig. 3
|----------------------------------------------------|
|----------------------------------------------------|
|----------------------------------------------------|
|----------------------------------------------------|
|----4---4---7-------10---7---7-------4---4---7------|
|--3---3---5---1-118----5---6---1-113---3---5---1-11-|

|-------------------|-------------|
|-------------------|-------------|
|-------------------|-------------|
|-------------------|-------------|
|----10---7---7---8-|---4---5--4--|
|--8----5---6---5---|-3---1-5--3--|

Fig. 4
|-----------------------|--------------------------------|
|-----------------------|--------------------------------|
|-----------------------|--------------------------------|
|-----------------------|--------------------------------|
|----7---8---4---5--4---|----10---7---7---8---4---5--4---|
|--6---5---3---1-5--3---|--8----5---6---5---3---1-5--3---|

Fig. 5
|--------------------------------------------------------|-------------------|----|
|--------------------------------------------------------|-------------------|----|
|--------------------------------------------------------|-------------------|----|
|--------------------------------------------------------|-------------------|----|
|--------------------------------------------------------|-7-----8-----4-----|-3--|
|--5-1-0-6-2-0-2-1-0-5-1-0-6-2-0-2-1-0-5-1-0-6-2-0-2-1-0-|-5-----6-----2-----|-1--|

Fig. 6
|--------------------------|
|--------------------------|
|--------------------------|
|--------------------------|
|--7-6---6-4---1-0---------|
|--5-4---4-3-------4-3-2-1-|

Fig. 7
|---------------------------------------------------------------------------|----|
|---------------------------------------------------------------------------|----|
|---------------------------------------------------------------------------|----|
|---------------------------------------------------------------------------|----|
|------7777------7777----7777------777766666666------------88888888---------|-3--|
|--0000----600-0-----600-----0-600-------------777766778888--------11111111-|-1--|

[gtr. 2 variation]
|---------------------------------------------------------------------------|----|
|---------------------------------------------------------------------------|----|
|---------------------------------------------------------------------------|----|
|----------------------------------666655555555------------77777777---------|----|
|------7777------7777----7777------------------666655667777-----------------|-3--|
|--0000----600-0-----600-----0-600---------------------------------11111111-|-1--|

Fig. 8
|---------------------------------------------------------------------------------------|
|---------------------------------------------------------------------------------------|
|---------------------------------------------------------------------------------------|
|---------------------------------------------------------------------------------------|
|-----13---9---10---7---7---8---4---5--4---10---10----13---9---10---7---7---8---4-5--4--|
|--10----9---8----5---6---5---3---1-5--3-9----8----11----9---8----5---6---5---3---5--3--|

|-------------------------------------------------------------|
|-------------------------------------------------------------|
|-------------------------------------------------------------|
|-----11---8--------------------------------------------------|
|--10----7-----10---10----13---9---10---7---7---8---4---5--4--|
|------------9----8----11----9---8----5---6---5---3---1-5--3--|

|---------------------------------------------------------------------|
|---------------------------------------------------------------------|
|---------------------------------------------------------------------|
|-------------11---8--------------------------------------------------|
|----4---7-10----7-----10---10----13---9---10---7---7---8---4---5--4--|
|--3---5-------------9----8----11----9---8----5---6---5---3---1-5--3--|
Suggest correction
Give kudos to tab author, rate the tab!
1 2 3 4 5
comments
print report bad tab
guest
You may want to rate the tab now too:
select rating
Wanna post a correction for this tab? Suggest correction