Oops, an error
Loading. Please wait.

I Cum Blood Tab

version 3
version 3

Whole song

Interactive

639 views 1 this week
1 commentread comment
1 2 3 4 5
please rate
add to favorites
launch autoscroll
font size
0
reset
how to read this tab
guitar tuner
Autoscroll
slow
fast
+/-
esc
set tempo
stop
Help us to improve Ultimate-Guitar.com Take our survey!
×
Author
Difficulty
Tuning
intermediate
D# G# C# F# A# D#
I Cum Blood - Cannibal Corpse

Tuning (Low to High) D# G# C# F# A# D#

Guitar 1 - Bob Rusay
Guitar 2 - Jack Owen

Riff 1
D# -------------------------------------------------------------------------|
A# -------------------------------------------------------------------------|
F# -------------------------------------------------------------------------|
C# -------------------------------------------------------------------------|
G# -------------------------------------------------------------------------|
D# -6-6-6-6-3-3-3-3-4-4-4-4-1-1-1-1-6-6-6-6-3-3-3-3-1-1-1-1-0-0-0-0-6-6-6-6-|

D# ---------------------------------------------------------||
A# ---------------------------------------------------------||
F# ---------------------------------------------------------||
C# ---------------------------------------------------------||
G# -------------------------------------------------------2-||
D# -3-3-3-3-4-4-4-4-1-1-1-1-6-6-6-6-3-3-3-3-1-1-1-1-0-0-0-0-||

Riff 2
D# -----------------------------------||
A# -----------------------------------||
F# -----------------------------------||
C# -----------------------------------||
G# -7---8---4---5---7---8---5---4---3-||
D# -5-0-6-0-2-0-3-0-5-0-6-0-3-0-2-0-1-||

Riff 3
D# -------------------------||
A# -------------------------||
F# -------------------------||
C# -------------------------||
G# -2-3-2-5/6/5-2-3-2-3/4/3-||
D# -0-1-0-3/4/3-0-1-0-1/2/1-||
    . . .       . . .

Riff 4
D# -------------||
A# -------------||
F# -------------||
C# -------------||
G# -8-5---3---4-||
D# -6-3-0-1-0-2-||
    . . . . . .

Riff 5
D# -------------------------------------------------||
A# -------------------------------------------------||
F# -------------------------------------------------||
C# -------------------------------------------------||
G# -------------------------------------------------||
D# -6-6-6-6-3-3-3-3-0-0-0-0-1-1-1-1-0-0-0-0-2-2-2-2-||
    . . . . . . . . . . . . . . . . . . . . . . . .

Riff 6
D# -------------------------------------------------------------------------|
A# -------------------------------------------------------------------------|
F# -------------------------------------------------------------------------|
C# -----------------3-3-3-3-5-5-5-5---------------------------------3-3-3-3-|
G# ---------2-2-2-2-----------------4-4-4-4-----------------2-2-2-2---------|
D# -1-1-1-1---------------------------------3-3-3-3-1-1-1-1-----------------|

D# -------------------------||
A# -------------------------||
F# -------------------------||
C# -4-4-4-4-----------------||
G# ---------3-3-3-3---------||
D# -----------------2-2-2-2-||

Riff 7
D# -------------||
A# -------------||
F# -------------||
C# -------5---8-||
G# -8-5---3---6-||
D# -6-3-0-3-0-6-||
    . . .   .

Riff 8
D# -----------------------------------------------------------------------|
A# -----------------------------------------------------------------------|
F# -----------------------------------------------------------------------|
C# -----------------------------------------------------------------------|
G# -----------------------------------------------------------------------|
D# -5-5-5-5-6-6-6-6-2-2-2-2-3-3-3-3-5-5-5-5-6-6-6-6-3-3-3-3-2-2-2-2-1-1-1-|

D# ---||
A# ---||
F# ---||
C# ---||
G# ---||
D# -1-||

Riff 9 - Guitar 1
D# -------------------------------------------------------------------------|
A# -------------------------------------------------------------------------|
F# -------------------------------------------------------------------------|
C# -------------------------------------------------------------------------|
G# -------------------------------------------------------------------------|
D# -6-6-6-6-5-5-5-5-4-4-4-4-5-5-5-5-4-4-4-4-3-3-3-3-4-4-4-4-3-3-3-3-2-2-2-2-|

D# -------------------------------------------------------------------------|
A# -------------------------------------------------------------------------|
F# -------------------------------------------------------------------------|
C# -------------------------5-5-5-5-4-4-4-4-3-3-3-3-5-5-5-5-4-4-4-4-3-3-3-3-|
G# -------------------------------------------------------------------------|
D# -3-3-3-3-2-2-2-2-1-1-1-1-------------------------------------------------|

D# -------------------------------------------------------------------------|
A# -------------------------------------------------------------------------|
F# -------------------------------------------------------------------------|
C# -5-5-5-5-4-4-4-4-3-3-3-3-5-5-5-5-4-4-4-4-3-3-3-3-8-8-8-8-7-7-7-7-6-6-6-6-|
G# -------------------------------------------------------------------------|
D# -------------------------------------------------------------------------|

D# -------------------------------------------------------------------------|
A# -------------------------------------------------------------------------|
F# -------------------------------------------------------------------------|
C# -7-7-7-7-6-6-6-6-5-5-5-5-6-6-6-6-5-5-5-5-4-4-4-4-5-5-5-5-4-4-4-4-3-3-3-3-|
G# -------------------------------------------------------------------------|
D# -------------------------------------------------------------------------|

D# -------------------------------------------------------------------------|
A# -------------------------------------------------------------------------|
F# -------------------------------------------------------------------------|
C# -------------------------------------------------------------------------|
G# -------------------------------------------------------------------------|
D# -3-3-3-3-2-2-2-2-1-1-1-1-3-3-3-3-2-2-2-2-1-1-1-1-3-3-3-3-2-2-2-2-1-1-1-1-|

D# -------------------------------------------------------------------------|
A# -------------------------------------------------------------------------|
F# -------------------------------------------------------------------------|
C# -------------------------------------------------------------------------|
G# -------------------------------------------------------------------------|
D# -3-3-3-3-2-2-2-2-1-1-1-1-6-6-6-6-5-5-5-5-4-4-4-4-5-5-5-5-4-4-4-4-3-3-3-3-|

D# -------------------------------------------------||
A# -------------------------------------------------||
F# -------------------------------------------------||
C# -------------------------------------------------||
G# -------------------------------------------------||
D# -4-4-4-4-3-3-3-3-2-2-2-2-3-3-3-3-2-2-2-2-1-1-1-1-||

Riff 9 - Guitar 2
D# -------------------------------------------------------------------------|
A# -------------------------------------------------------------------------|
F# -------------------------------------------------------------------------|
C# -------------------------------------------------------------------------|
G# -------------------------------------------------------------------------|
D# -6-6-6-6-5-5-5-5-4-4-4-4-5-5-5-5-4-4-4-4-3-3-3-3-4-4-4-4-3-3-3-3-2-2-2-2-|

D# -------------------------------------------------------------------------|
A# -------------------------------------------------------------------------|
F# -------------------------------------------------------------------------|
C# -------------------------------------------------------------------------|
G# -------------------------------------------------------------------------|
D# -3-3-3-3-2-2-2-2-1-1-1-1-3-3-3-3-2-2-2-2-1-1-1-1-3-3-3-3-2-2-2-2-1-1-1-1-|

D# -------------------------------------------------------------------------|
A# -------------------------------------------------------------------------|
F# -------------------------------------------------------------------------|
C# -------------------------------------------------------------------------|
G# -------------------------------------------------------------------------|
D# -3-3-3-3-2-2-2-2-1-1-1-1-3-3-3-3-2-2-2-2-1-1-1-1-6-6-6-6-5-5-5-5-4-4-4-4-|

D# -------------------------------------------------------------------------|
A# -------------------------------------------------------------------------|
F# -------------------------------------------------------------------------|
C# -------------------------------------------------------------------------|
G# -------------------------------------------------------------------------|
D# -5-5-5-5-4-4-4-4-3-3-3-3-4-4-4-4-3-3-3-3-2-2-2-2-3-3-3-3-2-2-2-2-1-1-1-1-|

D# -------------------------------------------------------------------------|
A# -------------------------------------------------------------------------|
F# -------------------------------------------------------------------------|
C# -------------------------------------------------------------------------|
G# -------------------------------------------------------------------------|
D# -3-3-3-3-2-2-2-2-1-1-1-1-3-3-3-3-2-2-2-2-1-1-1-1-3-3-3-3-2-2-2-2-1-1-1-1-|

D# -------------------------------------------------------------------------|
A# -------------------------------------------------------------------------|
F# -------------------------------------------------------------------------|
C# -------------------------------------------------------------------------|
G# -------------------------------------------------------------------------|
D# -3-3-3-3-2-2-2-2-1-1-1-1-6-6-6-6-5-5-5-5-4-4-4-4-5-5-5-5-4-4-4-4-3-3-3-3-|

D# -------------------------------------------------||
A# -------------------------------------------------||
F# -------------------------------------------------||
C# -------------------------------------------------||
G# -------------------------------------------------||
D# -4-4-4-4-3-3-3-3-2-2-2-2-3-3-3-3-2-2-2-2-1-1-1-1-||
Suggest correction
Give kudos to tab author, rate the tab!
1 2 3 4 5
comments
print report bad tab
1 comment total.
0 reply
Morbid Corpse 395 wrote on December 22 2012, 01:30 pm

On riff 9, Jack Owen plays guitar 1 not Bob Rusay. But great tab overall!

guest
You may want to rate the tab now too:
select rating
Wanna post a correction for this tab? Suggest correction