Oops, an error
Loading. Please wait.

Intestinal Crank Tab

version 1
version 1

Whole song

Interactive

928 views 6 this week
no commentswrite comment
1 2 3 4 5
please rate
add to favorites
launch autoscroll
font size
0
reset
how to read this tab
guitar tuner
Autoscroll
slow
fast
+/-
esc
set tempo
stop
Help us to improve Ultimate-Guitar.com Take our survey!
×
Cannibal Corpse
Intestinal Crank
Torture

.  - palm mute
\  - slide down to
/  - slide up to
h  - hammer on
p  - pull off
t  - tap
ph - pinch harmonic
~  - vibrato
b  - bend
r  - release bend
tr - trill
x  - mute
*  - comment

Tuning: Bb Eb Ab Db F Bb

Guitar I - Pat O'Brien (Right channel)
Guitar II - Rob Barret (Left channel)



Figure 1 x2
|--------------------------------------------|
|--------------------------------------------|
|--------------------------------------------|
|--------------------11--------------------5-|
|-------8-7-6-5---10-----------5-4-------4---|
|-0-6-8---------9--------0-3-6-----0-0-3-----|
  . . . . . . . .        . . . . . . . . .
                                              2nd ending
---------------------------------------------|-----------|
---------------------------------------------|-----------|
---------------------------------------------|-----------|
--------------------------8---6---------5----|-----------|
--------8-7-6-5---------7---5---------4------|-------5-4-|
--0-6-8---------9-8-7-6---------0-0-3--------|-0-3-6-----|
  . . . . . . . . . . . .   .   . . . .        . . . . .



Figure 2 x4
|-----------------------------------------|
|-----------------------------------------|
|-----------------------------------------|
|-----------------------------------------|
|-3-6-0-0-3-6-0-0-3-6-0-0-4-7-0-0-3-6-0-0-|
|-----------------------------------------|
  . . . . . . . . . . . . . . . . . . . .


                                   Second Ending      Fourth Ending
----------------------------------|------------------|------------------|
----------------------------------|------------------|------------------|
----------------------------------|------------------|------------------|
----------------------------------|------------------|------------------|
--3-6-0-0-3-6-0-0-4-7-0-0-6-9-0-0-|-7-10-0-0-6-9-0-0-|-9-12-0-0-6-9-0-0-|
----------------------------------|------------------|------------------|
  . . . . . . . . . . . . . . . .   . .  . . . . . .   . .  . . . . . .



Figure 3 x2
|---------------------------------------------------------|
|---------------------------------------------------------|
|---------------------------------------------------------|
|-------------4---------------4---88-1010-88-00-600-6-----|
|-------------5---------------5----------------------5~---|
|-6-0-6b8---0---0-6-0-6b8---0---0-------------------------|
  . .       .   . . .       .   .


---------------------------------101010101010-------------|
---------------------999999-7777--------------999999------|
--------------555555---------------------------------7777-|
----------------------------------------------------------|
----------------------------------------------------------|
--6-0-6b8---0---------------------------------------------|
  . .       .


------------------------------|
------------------------------|
---------999999----------11---|
--666666--------8888---88-----|
------------------------------|
---------------------0------0-|
                     . ..   .



Figure 4 x2
|----------------------------|
|----------------------------|
|-----11---------------------|
|---88-------10-------10---8-|
|----------99-------9--------|
|-0------0------0-8------0---|
  . ..   . ..   . . .    .


------------------------------------|
------------------------------------|
------11----------------------------|
----88-------10-------10---8-10---8-|
-----------99-------9---------------|
--0------0------0-8------0------0---|
  . ..   . ..   . . .    .      .



Repeat Figure 2 x4
Repeat Figure 3 x2
Repeat Figure 4 x3



Figure 5 x1
|----------------------------|
|----------------------------|
|-----11---------------------|
|---88-------10-------10---8-|
|----------99-------9--------|
|-0------0------0-8------0---|
  . ..   . ..   . . .    .


------------------------------------|* Let that last
------------------------------------|  chord ring
------11----------------------------|
----88-------10-------10----------8-|
-----------99-------9----9---7----7-|
--0------0------0-8--------8---6--0-|
  . ..   . ..   . . .



Figure 6 x16
|-------------|* Guitar I starts
|-------------|  on 9th time
|-------------|
|-------------|
|-----------9-|
|-0-0-0-0-0-8-|
  . . . . .



Figure 7 x3
|----------------------------------------------------|
|----------------------------------------------------|
|----------------------------------------------------|
|----------------------------------------------------|
|--------------------------------------9-----------9-|
|-6-----0-0-0-9b11-----------0-0-0-0-0-8-0-0-0-0-0-8-|
        . . .                . . . . .   . . . . .


-----------------------------------------------------|
-----------------------------------------------------|
-----------------------------------------------------|
--------------101010101010101010101010---------------|
------------7------------------------------------9---|
--6-----0-6----------------------------0-0-0-0-0-8---|
        . . .                          . . . . .


-----------------------------------------------------|
-----------------------------------------------------|
-----------------------------------------------------|
-----------------------------------------------------|
------------9--------------------------------------9-|
--0-0-0-0-0-8-6-----0-0-0-9b11-----------0-0-0-0-0-8-|
  . . . . .         . . .                . . . . .


------------------------------------------------------------------|
------------------------------------------------------------------|
------------------------------------------------------------------|
----------------------------------9ph-----------------------------|
------------9-----------7-11-10---------------------9-----------9-|
--0-0-0-0-0-8-6-----0-6---------9---------0-0-0-0-0-8-0-0-0-0-0-8-|
  . . . . .         . . .                 . . . . .   . . . . .



Repeat Figure 1 x4
Repeat Figure 2 x4



Figure 8 x4
|---------------|
|---------------|
|---------------|
|-----------4---|
|-----------5---|
|-6---6b8-------|



Figure 9 x8
|---------------|
|---------------|
|---------------|
|-----------4---|
|-----------5---|
|-6-0-6b8-0---0-|
  . .     .   .



Repeat Figure 4 x2



End song with this
|-------------------------|
|-------------------------|
|-------------------------|
|---------4---------------|
|----/9---5-------9-----2-|
|-6--/8-------6-0-8-6-6-0-|
              . .   . .

DONE!
Suggest correction
Give kudos to tab author, rate the tab!
1 2 3 4 5
comments
print report bad tab
guest
You may want to rate the tab now too:
select rating
Wanna post a correction for this tab? Suggest correction