Oops, an error
Loading. Please wait.

Living Dissection Tab

version 2
version 2

Whole song

Interactive

582 views 1 this week
no commentswrite comment
1 2 3 4 5
please rate
add to favorites
launch autoscroll
font size
0
reset
how to read this tab
guitar tuner
Tab Pro tools
  • play this tab
  • loop segment
  • change instrument
  • show fretboard
  • metronome
×
Best way to learn
"Living Dissection"
Autoscroll
slow
fast
+/-
esc
set tempo
stop
Contributor
Cannibal Corpse- Living Dissection

Riff 1
|-----------|
|-----------|
|-----------| x11
|-----------|
|-8-6-2-4-3-|
|-6-4-0-2-1-|
  . . . . .

|-----------------|
|-----------------|
|-----------------| x1
|-----------------|
|-8-6-4-3-8-6-4-3-|
|-6-4-2-1-6-4-2-1-|
  . . . . . . . .


Riff 2
|-----------------|
|-----------------|
|-----------------|
|-----------------|
|-6---4-----3---4-|
|---3---2-5---3---|
  . . . . . . . .


Riff 3
|------------------|
|------------------|
|------------------|
|------------------|
|----------1---1---|
|-00000000---1---4-|
  ........ ^ .


Now go back and play:

Riff 1 (this time play the first bar 5 times, and the second bar once)


Riff 4
|------------------------------------------|
|------------------------------------------|
|------------------------------------------|
|----------------------------------7-----8-|
|-6666------5555------4h5p4------6-----7---|
|------3333------2222-------5--5-----6-----|
                               . .   . .


Riff 5 - This is basically riff 2 speed picked
|-----------------------------------------|
|-----------------------------------------|
|-----------------------------------------|
|-----------------------------------------|
|-6666------4444-----------3333------4444-|
|------3333------2222-5555------3333------|


Now go back and play:

Riff 2, then..


Riff 6
|-----------------------------------------|
|-----------------------------------------|
|-----------------------------------------|
|-----------------------------------------|
|-6666------4444-----------3333------4444-|
|------3333------2222-5555------3333------|

|------------------------------------------|
|------------------------------------------|
|------------------------------------------|
|----------------------------------7-----8-|
|-6666------4444------4h5p4------6-----7---|
|------3333------2222-------5--5-----6-----|
                               . .   . .


Riff 7
|-------------|
|-------------|
|-------------| x18
|---7---------|
|-6---7-------|
|-------5-6-4-|
  . . . . . .

|-------------|
|-------------|
|-------------| x8
|---4---------|
|-3---4-------|
|-------3-4-2-|
  . . . . . .


Riff 8
|----------------------------------------------------|
|----------------------------------------------------|
|----------------------------------------------------|
|------------------------------------------------3-3-|
|------------------------------------------------3-3-|
|-6p5p0-00-3p2p0-00-2p1p0-00-4444-0000-2222-1111-1-1-|



Now go back and play:

Riff 7 - (play the first bar 10 times, and the second bar 4 times)
Riff 2
Riff 3
Riff 8
Riff 3
Riff 1 - (play the first bar 5 times, and the second bar once)


Riff 9
|--------------------------------|
|--------------------------------|
|--------------------------------| x14
|--------------------------------|
|-3p2p0--------------------------|
|--------0-0-0-0--2p1p0--0-0-0-0-|
         . . . .         . . . .

|---------------------------|
|---------------------------|
|---------------------------| x2 (mid tempo)
|---------------------------|
|-3p2p0---------------------|
|-------000000-2p1p0-000000-|

|---------------------------|
|---------------------------|
|---------------------------| x4 (fast tempo)
|---------------------------|
|-3p2p0--------3p2p0--------|
|-------000000-------000000-|

|---------------------------|
|---------------------------|
|---------------------------| x4 (mid tempo)
|---------------------------|
|-3p2p0---------------------|
|-------000000-2p1p0-000000-|


The song ends on the following chords - it is just
the first bar of riff 1 played twice:

|---------------------|
|---------------------|
|---------------------|
|-------------------3-|
|-8-6-2-4-3-8-6-2-4-3-|
|-6-4-0-2-1-6-4-0-2-1-|

Have Fun!!!
comments
We did not receive enough feedback on this tab! Please rate:
print report bad tab
1 2 3 4 5
I want to post or [tab]
guest
You may want to rate the tab now too:
select rating
Please do not post tabs as comments. Select "correction" instead!