Oops, an error
Loading. Please wait.

No Remorse Tab

version 2
version 2

Whole song

Interactive

1,192 views 3 this week
1 commentread comment
1 2 3 4 5
worth learning
x 3
add to favorites
launch autoscroll
font size
0
reset
how to read this tab
guitar tuner
Autoscroll
slow
fast
+/-
esc
set tempo
stop
Help us to improve Ultimate-Guitar.com Take our survey!
×
Author
Difficulty
intermediate
Cannibal Corpse - Worm Infested - No Remorse (2002)

. = Palm mute     ^ = pinch harmonic
h = hammer on     (tr) = trill picking
p = pull off      ~ = Let Ring

Tunning D A D G B E

Riff1  0:00-0:50
Guitar1
|----------------------------------------|
|----------------------------------------|
|----------------------------------------|
|----------------------------------------|
|--2h3-0-0--2p1-0-0--2h3-0-0--1p0-3------|
|--2h3-0-0--2p1-0-0--2h3-0-0--1p0-3------|
       . .      . .      . .

|----------------------------------------|
|----------------------------------------|
|----------------------------------------|
|----------------------------------------|
|--2h3-0-0--2p1-0-0--2h3-0-0--1p0-4------|
|--2h3-0-0--2p1-0-0--2h3-0-0--1p0-4------|
       . .      . .      . .
Riff2  0:50-1:29
|------------------------------------|
|------------------------------------|
|------------------------------------|
|----------------------------------3-|
|-----0h1-------0h1-------0h1------3-|
|-0-0-------0-0-------0-0------0-0-3-|
  . .       . .       . .      . .

|------------------------------------|
|------------------------------------|
|------------------------------------|
|-----------------------------0-1-2--|
|-----0h1-------0h1-------0h1-0-1-2--|
|-0-0-------0-0-------0-0-----0-1-2--|
  . .       . .       . .

Riff 3  1:19-1:31
|---------------|
|---------------|
|---------------| 4x  (4th time do without the pinch and just use an open)
|---------------|
|---------------|
|-1-0-1-0-1-0-3-|
    .   .   . ^

Riff4 1:31-1:50
___________________________2x______________________________
|--------------------------|   |--------------------------|
|--------------------------|   |--------------------------|
|--------------------------|3x |--------------------------|1x
|--------------------------|   |--------------------------|
|------6---5---4---3---0h1-|   |------6---5---4-----2-0-1-|
|--0-0---0---0---0---0-----|   |--0-0---0---0---0-0-2-0-1-|
   . .   .   .   .   .            . .   .   .   . .   .

Riff2 1:50-2:19
Riff3 2:20-2:30
Riff4 2:30-2:48(49)

Riff5 2:49-2:54
|-------|
|-------|
|-------|
|-0(tr)-|
|-0(tr)-|
|-0(tr)-|
  .

Riff6 2:54-3:45
Guitar1
|------------------------------------------------------------------|
|------------------------------------------------------------------|
|------------------------------------------------------------------|
|---------------9---------------8---------------7----------------8-|
|---------------7---------------6---------------5----------------6-|
|-0-0-1-1-1-0-0---0-0-1-1-1-0-0---0-0-1-1-1-0-0----0-0-1-1-1-0-0---|
  . . . . . . .   . . . . . . .   . . . . . . .    . . . . . . .

Riff7 3:45-3:51
|---------------------------|
|---------------------------|
|---------------------------| 2x
|-6-0-0-0-5-0-0-0-4-0-0-0-3-|
|---------------------------|
|---------------------------|

|---------------------------|   |---|
|---------------------------|   |---|
|-8-------7-------6-------5-|1x |---|1x
|-6-0-0-0-5-0-0-0-4-0-0-0-3-|   |-0-|
|---------------------------|   |-0-|
|---------------------------|   |-0-|

Riff2 3:50-4:10
Riff3 4:12-4:21
Riff4 4:21-4:40

Riff8 4:45-5:05
|---------------------------------|
|---------------------------------|
|---------------------------------|
|--10------8-------9--------7-8-7-|
|--8-------6-------7--------5-6-5-|
|----0(tr)---0(tr)----0(tr)-------|

Riff9 5:06-5:17
|-----------------------| |-------------------------|
|-----------------------| |-------------------------|
|-----------------------| |-------------------------|
|-----------------------| |-------------------------|
|-0-1-0-2-1-0-0-1-0-3-2-| |-0-1-0-2-1-0-0-1-0-1-2-1-|
|-0-1-0-2-1-0-0-1-0-3-2-| |-0-1-0-2-1-0-0-1-0-1-2-1-|
  .   .     . .   .         .   .     . .   .

Riff8 5:17-5:28
Riff9 5:28-5:39
Riff8 5:39-5:49

Riff10 5:49(50)-6:08
|-------|
|-------|
|-------|
|-4-3-0~|
|-4-3-0~|
|-4-3-0~|

Riff11 6:08-End
|------------------------|
|------------------------|
|------------------------|
|------------------------|
|----------6-----------0-|
|-0--0-0-0-6--0--0-0-0-0-|
  .  . . .    .  . . .
Suggest correction
What's this?
You can suggest a correction to this tab. Community and Mods will review your correction and vote to approve or reject it.
comments
We did not receive enough feedback on this tab! Please rate:
print report bad tab
1 2 3 4 5
1 comment total.
0 reply
CrippleBastards 742 wrote on September 14 2007, 01:21 pm

BAD!

guest
You may want to rate the tab now too:
select rating
Please do not post tabs as comments. Select "correction" instead!