Oops, an error
Loading. Please wait.

Post Mortal Ejaculation Tab

version 2
version 2

Whole song

Interactive

352 views 1 this week
no commentswrite comment
1 2 3 4 5
please rate
add to favorites
launch autoscroll
font size
0
reset
how to read this tab
guitar tuner
Tab Pro tools
  • play this tab
  • loop segment
  • change instrument
  • show fretboard
  • metronome
×
Best way to learn
"Post Mortal Ejaculation"
Autoscroll
slow
fast
+/-
esc
set tempo
stop
Contributor
Cannibal Corpse
Tomb of the Mutilated
Post Mortal Ejaculation

Copyright (c)  Metal Blade Records 1992
Version 1.1 - 5.3.2008

Transcribed By: Yaniv D
Email:          lickywebster@yahoo.com


.  - palm mute           /  - slide up to
\  - slide down to       ~  - vibrato
h  - hammer on           b  - Bend
p  - pull off            Suffixes for bend
t  - tap                 f  - full bend    h - half bend
ph - pinched harmonic    q  - quarter bend t - tap bend
*  - see comment         ^  - Hold bend    r release bend
x  - Stuccatto           ~  - vibrato bend
,  - slight palm mute    () - ghost note, sustained note
"  - tremolo note        <> - Trill

Tuning is D#

Intro (probobley slight improv used here with the 1s and 2s
       play it as you wish)

|R          x4|          x20|                       x4|
|-------------|-------------|-------------------------|
|-------------|-------------|-------------------------|
|-------------|-------------|-------------------------|
|-------------|-------------|---------2---------------|
|-1-1-2-1-4---|-1-1-2-1-4---|-1-1-2-1-----1-1-2-1-4---|
|-------------|-------------|-------------------------|
| . . . .     | . . . .     | . . . .     . . . .     |
|L            |             |                         |
|-------------|-------------|-------------------------|
|-------------|-------------|-------------------------|
|-------------|-------------|-------------------------|
|-------------|-------------|-------------------------|
|-------------|-1-1-2-1-4---|-1-1-2-1-4---1-1-2-1-4---|
|-------------|-------------|-------------------------|
                . . . .       . . . .     . . . .

Riff A x4
|R
|------------------------------------------|
|------------------------------------------|
|------------------------------------------|
|------------------------------------------|
|-1-1-2-1-4---1-1-2-1-4---1-1-2-1-4--6\-3--|
|------------------------------------4\-1--|
| . . . .     . . . .     . . . .
|L
|------------------------------------------|
|------------------------------------------|
|------------------------------------------|
|------------------------------------------|
|-1-1-2-1-4---1-1-2-1-4---1-1-2-1-4--5\-3--|
|------------------------------------3\-1--|
  . . . .     . . . .     . . . .

Riff B x4
|--------------------------|
|--------------------------|
|--------------------------|
|-----------------4--------|
|-1-1-2-1-4----------6\-5--|
|-------------3-3----4\-3--|
  . . . .     . .

Riff C x8
|-----------------------------------------|
|-----------------------------------------|
|-----------------------------------------|
|-6---5---------------6---5---3---4---5---|
|---7---6---7---6-------7---6---5---6---7-|
|---------0---8---7-0---------------------|
    .   . .   .   . .   .   .   .   .   .

Riff D x8
|----------------------------------------|
|----------------------------------------|
|----------------------------------------|
|----------------------------------------|
|---------------2h3p2--------------------|
|-00000000-3340-------44444444-1111-2222-|

Riff E x6
|------------------------------------|
|------------------------------------|
|------------------------------------|
|------------3-----------------------|
|------------1----------------3--3---|
|-0000000000-------0000000000-1--1---|
  ..........       .......... .  .

Riff D x4

Slow part
|R                              x1|                               x2|
|---------------------------------|---------------------------------|
|---------------------------------|---------------------------------|
|---------------------------------|---------------------------------|
|---------------------------------|---------------------------------|
|-2--/3-----------2--/3-----------|-2--/3-----------2--/3-----------|
|-0-------2---1---0-------1--/4---|-0-------2---1---0-------1--/4---|
|                                 |                                 |
|L                                |                                 |
|---------------------------------|---------------------------------|
|---------------------------------|---------------------------------|
|---------------------------------|---------------------------------|
|---------------------------------|---------------------------------|
|-2-ring-------------/3-----------|-2--/3-----------2--/3-----------|
|-0-----------------------1--/4---|-0-------2---1---0-------1--/4---|

Passage x1
|R
|-------------------------------------------------------------|
|-------------------------------------------------------------|
|-------------------------------------------------------------|
|-------------------------------------------------------------|
|-2---------------------------6-----------------------3-3-6---|
|-0---------------------------4-----------------------3-1-4---|
|                                                             |
|L                                                            |
|-------------------------------------------------------------|
|-------------------------------------------------------------|
|-------------------------------------------------------------|
|-------------------------------------------------------------|
|-----3333------------3333------------3333------------3-3-6---|
|-0000----222211110000----111144440000----222211110---3-1-4---|


Riff F x4
|----------------------------------|
|----------------------------------|
|----------------------------------|
|----------------------------------|
|-----3333------------3333---------|
|-0000----222211110000----11114444-|

Riff E x2

Riff G x4
|-------------------------------------------------|
|-------------------------------------------------|
|-------------------------------------------------|
|-------------------------------------------------|
|-------------------------------------------------|
|-4-4-5-4-7---4-4-5-4-7---2-2-3-2-5---1-1-2-1-4---|
  . . . .     . . . .     . . . .     . . . .

Outro
|R     x3|    x1|      x3|    x1|      x3|    x1|      x3|    x1|     x8|
|--------|------|--------|------|--------|------|--------|------|-------|
|--------|------|--------|------|--------|------|--------|------|-------|
|--------|------|--------|------|--------|------|--------|------|-------|
|--------|------|--------|------|--------|------|--------|------|-------|
|-11214--|-5\-3-|-11214--|-5\-3-|-11214--|-6\-3-|-11214--|-5\-3-|-11214-|
|--------|-3\-1-|--------|-3\-1-|--------|-4\-1-|--------|-3\-1-|-------|
| ....            ....            ....            ....            ....
|L
|--------|------|--------|------|--------|------|--------|------|-------|
|--------|------|--------|------|--------|------|--------|------|-------|
|--------|------|--------|------|--------|------|--------|------|-------|
|--------|------|--------|------|--------|------|--------|------|-------|
|-11214--|-5\-3-|-11214--|-6\-3-|-11214--|-5\-3-|-11214--|-5\-3-|-11214-|
|--------|-3\-1-|--------|-4\-1-|--------|-3\-1-|--------|-3\-1-|-------|
| ....            ....            ....            ....            ....

END
comments
We did not receive enough feedback on this tab! Please rate:
print report bad tab
1 2 3 4 5
I want to post or [tab]
guest
You may want to rate the tab now too:
select rating
Please do not post tabs as comments. Select "correction" instead!