Oops, an error
Loading. Please wait.

Put Them To Death Tab

version 2
version 2

Whole song

Interactive

1,711 views 9 this week
no commentswrite comment
1 2 3 4 5
excellent!
x 4
add to favorites
launch autoscroll
font size
0
reset
how to read this tab
guitar tuner
Autoscroll
slow
fast
+/-
esc
set tempo
stop
Help us to improve Ultimate-Guitar.com Take our survey!
×
Cannibal Corpse
Eaten Back to Life
Put Them to Death

Copyright (c)  Metalblade Records 1990
Version 1.4 - 15.8.2007

Transcribed By: Yaniv D
Email:          lickywebster@yahoo.com


.  - palm mute           /  - slide up to
\ - slide down to       ~  - vibrato
h  - hammer on           b  - Bend
p  - pull off            Suffixes for bend
t  - tap                 f  - full bend    h - half bend
ph - pinched harmonic    q  - quarter bend t - tap bend
*  - see comment         ^  - Hold bend    r release bend
x  - Stuccatto           ~  - vibrato bend
,  - slight palm mute    () - ghost note, sustained note
"  - tremolo note        <> - Trill

Tuning is D#

Riff A x4                          Riff B x2
|----------------------------------|---------------------|
|----------------------------------|---------------------|
|----------------------------------|---------------------|
|----------------------------------|---------------------|
|-6---4-5-5---3-4-6---4-5-5---3-4--|-6----5----6----5----|
|-4-0-2-3-3-0-1-2-4-0-2-3-3-0-1-2--|-4----3----4----3----|
    . . .   . . .   . . .   . . .

Riff A x2

Riff C x2                          Riff D1 x2
|----------------------------------|------------------------------------|
|----------------------------------|------------------------------------|
|----------------------------------|------------------------------------|
|-6/7-5/6---------6/7-5/6----------|------------------------------------|
|-4/5-3/4-5-6-7-8-4/5-3/4-5-6-7-8--|-7/8-7/8-----------5/6-5/6----------|
|---------3-4-5-6---------3-4-5-6--|-5/6-5/6--0-0-0-0--3/4-3/4--0-0-0-0-|
          . . . .         . . . .             . . . .           . . . .

Riff C  x1
Riff D1 x1

Riff D2 x1
|-----------------------------|
|-----------------------------|
|-----------------------------|
|-------------------50040030--|
|-7/8-7/8-----------60050040--|
|-5/6-5/6--0-0-0-0------------|
           . . . .

Riff D1 x1
Riff D2 x1

Guitar 1:
Riff E x2
|--------------------------------------------------|
|--------------------------------------------------|
|--------------------------------------------------|
|---------------------------------------------33---|
|-2232--2252--2232--22----2232--2252--2232--22-----|
|---------------------33---------------------------|

Guitar 2:
Fill x2
|--------------------------------------------------|
|--------------------------------------------------|
|---------------------------------------------5----|
|---------------------------------------------3----|
|---------------------5----------------------------|
|---------------------3----------------------------|

Both guitars:
Riff E x6

Riff F1 x2                        1st         2nd
|-------------------------------|-----------|---------|
|-------------------------------|-----------|---------|
|-------------------------------|-----------|---------|
|----------------4444-----------|-----------|---------|
|-3333-4444-3333-2222-3333-4444-|-3333-2222-|-3----2--|
|-1111-2222-1111------1111-2222-|-1111-0000-|-1----0--|

Riff F2 x2                          Riff F3 x2
|----------------------------------|------------------|
|----------------------------------|------------------|
|----------------------------------|------------------|
|-------------4--------------------|-------4----------|
|-3---4---3---2---3---4---3---2----|-3-4-3-2-3-4-3-2--|
|-1-0-2-0-1-0---0-1-0-2-0-1-0-0-0--|-1-2-1---1-2-1-0--|
  . . . . . .   . . . . . . . . .

Riff D1 x8

Riff G  x1
|------------------------------------------------------|
|------------------------------------------------------|
|------------------------------------------------------|
|------------------------------------------------------|
|-7-8----------5-6----------7-8----------5-6-----------|
|-5-6-00000000-3-4-00000000-5-6-00000000-3-4-00000000--|

And finally play
Riff E x2

Done.
Suggest correction
comments
print report bad tab
guest
You may want to rate the tab now too:
select rating
Wanna post a correction for this tab? Suggest correction