Oops, an error
Loading. Please wait.

Return To Flesh Tab

version 2
version 2

Whole song

Interactive

3,512 views 3 this week
1 commentread comment
1 2 3 4 5
2 more votes to show rating
add to favorites
launch autoscroll
font size
0
reset
how to read this tab
guitar tuner
Autoscroll
slow
fast
+/-
esc
set tempo
stop
Help us to improve Ultimate-Guitar.com Take our survey!
×
Cannibal Corpse
The Bleeding
Return To Flesh

Copyright (c)  Metal Blade 1994
Version 1.01 - 26.8.2009

Transcribed By: Yaniv Dekel
Email:          lickywebster@yahoo.com


.  - palm mute           /  - slide up to
\  - slide down to       ~  - vibrato
h  - hammer on           b  - Bend
p  - pull off            Suffixes for bend
t  - tap                 f  - full bend    h - half bend
ph - pinched harmonic    q  - quarter bend t - tap bend
*  - see comment         ^  - Hold bend    r release bend
x  - Stuccatto           ~  - vibrato bend
,  - slight palm mute    () - ghost note, sustained note
"  - tremolo note        <> - Trill
@  - 10                  W  - Whammy bar

Tuning is D#


Riff A x4
|-----------------------|
|-----------------------|
|-----------------------|
|-------4\---------3\---|
|-6-5-2-5\---6-5-2-4\---|
|-4-3-0-7\---4-3-0-6\---|
  . . .      . . .


|L          (Part 1A) | (Part 1B)
|---------------------|------------------------|
|---------------------|------------------------|
|---------------------|--------2"--------1"----|
|---------------------|------------4"-3"-------|
|-6-5-2-5"---------4"-|--6-5-2-----------------|===
|-4-3-0-----7"-6"-----|--4-3-0-----------------|  =
| . . .               |  . . .                 |  = Part 1 x2
|R                    |                        |  =
|---------------------|------------------------|  =
|---------------------|------------------------|===
|---------------------|------------------------|
|-------3"---------2"-|--------3"---------2"---|
|-6-5-2-----5"-4"-----|--6-5-2-----5"-4"-------|
|-4-3-0---------------|--4-3-0-----------------|
  . . .                 . . .

|L                 |1-3
|------------------|------|
|------------------|------|
|------------------|------|
|-------4\---------|-3\---|
|-6-5-2-5\---6-5-2-|-4\---|===
|-4-3-0-7\---4-3-0-|-6\---|  =
| . . .      . . . |      |  = Part 2 x4
|R                 |      |  =
|------------------|------|  =
|------------------|------|===
|------------------|------|
|-------3"---------|--2"--|
|-6-5-2-----5"-4"--|------|
|-4-3-0------------|------|
  . . .


Part 3 x4
|L                         1-2|                          3-4|
|-----------------------------|-----------------------------|
|-----------------------------| 4th time last 2 notes are 0 |
|-----------------------------|-----------------------------|
|-----------------------------|-----------------------------|
|-554444-774444---------------|-554444-774444---------------|
|---------------443333-663333-|---------------443333-663333-|
| ...... ...... ...... ...... | ...... ...... ...... ...... |
|R                            |                             |
|-----------------------------|-----------------------------|
|-----------------------------| 4th time last 2 notes are 0 |
|-----------------------------|-----------------------------|
|-----------------------------|-----------------------------|
|-554444-774444---------------|-887777-@@7777---------------|
|---------------443333-663333-|---------------776666-996666-|
  ...... ...... ...... ......   ...... ...... ...... ......


Riff B x4
|L                                          |1-3
|-------------------------------------------|---------|
|-------------------3-3-3-------------------|---------|
|-------------------3-3-3-------------7\6-6-|---------|
|-------------------5-5-5-------------x---x-|--fast---|
|-5-2-2-3-2-2-2-2-2-------5-2-2-3-2-2-5\4-4-|-5/6\5-5-|
|-3-0-0-1-0-0-0-0-0-------3-0-0-1-0-0-------|-3/4\3-3-|
|   . .   . . . . .         . .   . .       |         |
|R                                          |         |
|-------------------------------------------|---------|
|-------------------3-3-3-------------------|---------|
|-------------------3-3-3-------------7\6-6-|--fast---|
|-------------------5-5-5-------------x---x-|-5/6\5-5-|
|-5-2-2-3-2-2-2-2-2-------5-2-2-3-2-2-5\4-4-|-x-----x-|
|-3-0-0-1-0-0-0-0-0-------3-0-0-1-0-0-------|-3/4\3-3-|
    . .   . . . . .         . .   . .

Part 3  x4
Riff B  x4

Riff A  x1
Part 1A x1
Riff A  x1
Part 1B x1


|L                     1-4|                      5-8|
|-------------------------|-------------------------|
|-------------------------|-------------------------|
|-------------------------|-------------------------|
|-----3"--------3/5\3-2"--|-----3"--------3/5\3-2"--|
|-6-5-----6-5-2-x---------|-6-5-----6-5-2-x---------|===
|-4-3-----4-3-0-1/3\1-----|-4-3-----4-3-0-1/3\1-----|  =
| . .     . . .           | . .     . . .           |  = Part 4 x8
|R                        |                         |  =
|-------------------------|-------------------------|  =
|-------------------------|-------------------------|===
|-------------------------|-------------------------|
|---------------3/5\3-----|-----6"--------3/5\3-5"--|
|-6-5-5"--6-5-2-x-----4"--|-6-5-----6-5-2-x---------|
|-4-3-----4-3-0-1/3\1-----|-4-3-----4-3-0-1/3\1-----|
  . .     . . .             . .     . . .

Riff C x4                                   |1-3   |4
|-------------------------------------------|------|-------|
|-------------------------------------------|------|-------|
|-------------------------------------------|------|-------|
|-------5"----3"----------------5"----3"----|------|-------|
|-4"-------4"----2"-5"----4"-------4"----2"-|-4"---|-2-3-2-|
|----3"----------------4"----3"-------------|---3"-|-0-1-0-|
                                                     . . .

Uner solo:
Riff B x4 (Play last part 4th time)
Part 3 x4 (4th time R channle does a pickslide instead of 996666)
Riff B x4 (Dont play last part 4th time)


Part 5 x1
|L                                     |(Part 5A)
|--------------------------------------|-----------------------------|
|--------------------------------------|-----------------------------|
|--------------------------------------|-----------------------------|
|---------------3"---------------------|---------3"------------------|
|-6-5-2-5"--2"------5"--4"------4"-----|-5"--2"------5"--4"----------|
|-4-3-0---------------------6"------3"-|-----------------------3"----|
| . . .                                |                             |
|R                                     |                             |
|--------------------------------------|-----------------------------|
|--------------------------------------|-----------------------------|
|--------------------------------------|-----------------------------|
|--------------------------------------|-3"------6"--3"--2"----------|
|-6-5-2--------------------------------|-----5"----------------1"----|
|-4-3-0-/7-ring to feedback------------|-----------------------------|
  . . .

Part 4 x8
Riff C x4 (4th time play 1st ending)

Riff D x8                      |1-7   |8       |
|------------------------------|------|--------|
|------------------------------|------|--------|
|------------------------------|------|--------|
|------------------------------|------|--------|
|---------------------4444-----|-6\5--|-6-5-2--|
|-0-0-3-6-0-0-6-9-6-0-----3333-|-4\3--|-4-3-0--|
  . . . . . . . . . .                   . . .

Part 5A x1

End x1
|---------|
|---------|
|---------|
|---------|
|-6-5-2---|
|-4-3-0---|
  . .


Solo I (2:21)
|------------------14h15p14-14\12----12--------------14-15-17-19----|
|---------------------------------15----/17~ --15-17----------------|
|-/12---------------------------------------------------------------|
|------14-12-14~ ---------------------------------------------------|
|-------------------------------------------------------------------|
|-------------------------------------------------------------------|

                  x3|                x8|                x7|
 -14h15p14----------|------------------|-14h15p14---------|
 ---------17p15h17~ |-14h15p14---------|---------17p15h17-|
 -------------------|---------16p14h16-|------------------|
 -------------------|------------------|------------------|
 -------------------|------------------|------------------|
 -------------------|------------------|------------------|

 --------------------------|
 -14h15p14--------15p14~ \-|
 ---------16p14h16---------|
 --------------------------|
 --------------------------|
 --------------------------|


Solo II (2:45)                                    |                     x3|
|---------17w19-----------------------------------|-15h17p15---15h18p15---|
|---------ph------15w17__w15w17w15w17w15w17w15w17-|---------17---------17-|
|-14w16-----------ph------------------------------|-----------------------|
|-12w14-------------------------------------------|-----------------------|
|-------------------------------------------------|-----------------------|
|-------------------------------------------------|-----------------------|

                        |                     x3|
|-----------------------|-15h17p15---15h18p15---|--------------------------|
|-15h17p15---15h18p15---|---------17---------17-|---------------------/12~ |
|---------16---------16-|-----------------------|-12h14p12---/13-12--------|
|-----------------------|-----------------------|---------14--------14-----|
|-----------------------|-----------------------|--------------------------|
|-----------------------|-----------------------|--------------------------|


END
Suggest correction
Give kudos to tab author, rate the tab!
1 2 3 4 5
comments
print report bad tab
1 comment total.
+1 reply
metalfreak_6666 10 Aug 25, 2009 07:40 PM

Perfect. And Awesome. Thanks man

guest
You may want to rate the tab now too:
select rating
Wanna post a correction for this tab? Suggest correction