Oops, an error
Loading. Please wait.

Sanded Faceless Tab

651 views 1 this week
no commentswrite comment
1 2 3 4 5
please rate
add to favorites
launch autoscroll
font size
0
reset
how to read this tab
guitar tuner
Tab Pro tools
  • play this tab
  • loop segment
  • change instrument
  • show fretboard
  • metronome
Autoscroll
slow
fast
+/-
esc
set tempo
stop
Contributor
Difficulty
intermediate
Cannibal Corpse - Gore Obsessed - Sanded Faceless (2002)

.  - palm mute           /  - slide up to
\  - slide down to       ~  - vibrato
h  - hammer on           b  - Bend
p  - pull off            Suffixes for bend
t  - tap                 f  - full bend    h - half bend
ph - pinched harmonic    q  - quarter bend t - tap bend
*  - see comment         ^  - Hold bend    r release bend
x  - Stuccatto           ~  - vibrato bend
,  - slight palm mute    () - ghost note, sustained note
"  - tremolo note        <> - Trill

Tunning Bb.

Riff1_____played 20 times
|---------------------------------|---------------------------------|
|---------------------------------|---------------------------------|
|---------Pat O' Brien------------|Jack make some noise with the bar|
|---------------------------------|---------------------------------|
|---------------------------------|---------------------------------|
|-1-1-1-1-2h1-3-3-3-3-2h1-1-1-1-1-|---------------------------------|


Riff2_____played 10 times
|------------------------------------------------|
|------------------------------------------------|
|very similar with Riff1, Jack joins Pat here----|
|------------------------------------------------|
|------------------------------------------------|
|-2h1-1-1-1-1-2h1-33-3-3-3-----------------------|


Riff3_____played 3 times
|-------------------------------------------------------------------|
|-------------------------------------------------------------------|
|----------------------444------------------------------------------|
|--------------444-333-----555-4"-3"--------------------------------|
|------333-222------------------------------------------------------|
|-5--2-------------------------------6-3--2"--5-2--1"---------------|
                                    . .      . .

Riff3End__played 1 time
|-------------------------------------------------------------------|
|-------------------------------------------------------------------|
|----------------------444------------------------------------------|
|--------------444-333-----555-4"-3"-3"-----------------------------|
|------333-222--------------------------2"--------------------------|
|-5--2--------------------------------------------------------------|

                 * Riff4 + Riff4End played 2 times

Riff4_____played 3 times    after 3 times played, then play Riff4End.
|---------------------|---------------------------------------------|
|---------------------|------------------Riff4End-------------------|
|---------------------|---------------------------------------------|
|-------9-------------|-----------------6h9p6h9p6h9-----------------|
|-8-7-8---8-7---------|------------2-2------------------------------|
|-------------444-000-|------------0-0------------------------------|
                                   . .

Riff5____played 4 times
|----------------------|
|----------------------|
|----------------------|
|-----6h9p6-----3h6p3--|
|----------------------|
|-9-6-------6-3--------|


Repeat Riff2 4 times then play Riff6


Riff6_____play 2 times
|-------------------------------------------------------------------|
|-------------------------------------------------------------------|
|-------------------------------------------------------------------|
|-----3-------------------------------------------------------------|
|-5-3-1-5-4-3-------6--------------9------6-----7-------------------|
|-3-1---3-2-1--4p0-----5p2-5p2-6p3----5p2---5p2---5p2--3p0----------|



Riff7
|-------------|------------------------------------------------------|
|---1-time----|---------------2-times--------------------------------|
|-------------|------------------------------------------------------|
|-----3-------|-------4--------7--6-------9--7-8---------------------|
|-5-3-1-5-4-3-|---3-6--------8------8---7----5-6---------------------|
|-3-1---3-2-1-|-0--------0-0----------9------------------------------|



Riff7______the second time of Riff7 goes directly to Riff8
|-----------------------------------|-------------Riff8--------------|
|-----------------------------------|--------------------------------|
|-----------------------------------|------4----10"-7"-----10"-9"-6"-|
|-------4-------7--6-------9---4---5|----7---5"----------------------|
|---3-6-------8------8---7---0---0--|-5"---------------5p0-----------|
|-0-------0-0----------9------------|--------------------------------|


...Riff8______play 2 times
|------------------------------------------------------|
|------------------------------------------------------|
|---------------------7-6-4-7-------------4-7-6--------|
|------7--------4-5-7------------6"-7"-8"---------2"---|
|-5p0--5--4-5-7---------------5"-----------------------|
|------------------------------------------------------|


Repeat Riff4 + Riff4End played 2 times

Repeat Riff5 4 times

|------------------------------------------------|
|------------------------------------------------|
|------------------------------------------------|
|------------------------------------------------|
|------------------------5-----------------------|
|-2h1-1-1-1-1-2h1-33-3-3-3-----------------------|

End of the song.
comments
We did not receive enough feedback on this tab! Please rate:
print report bad tab
1 2 3 4 5
I want to post or [tab]
guest
You may want to rate the tab now too:
select rating
Please do not post tabs as comments. Select "correction" instead!