Oops, an error
Loading. Please wait.

Severed Head Stoning Tab

version 1
version 1

Whole song

Interactive

1,673 views 1 this week
no commentswrite comment
1 2 3 4 5
accurate
x 3
add to favorites
launch autoscroll
font size
0
reset
how to read this tab
guitar tuner
Autoscroll
slow
fast
+/-
esc
set tempo
stop
Help us to improve Ultimate-Guitar.com Take our survey!
×
Author
Difficulty
intermediate
Cannibal Corpse - The Wretched Spawn - Severed Head Stoning (2004)

TUNING: Bb Eb Ab Db F Bb

. - palm mute / - slide up to
\ - slide down to ~ - vibrato
h - hammer on p - pull off
, - slight palm mute () - ghost note, sustained note
" - tremolo note <> - Trill

Suffixes for bend
f - full bend h - half bend
ph - pinched harmonic q - quarter bend
t - tap bend * - see comment
^ - Hold bend r - release bend
x ? Stuccatto ~ - vibrato bend


Riff 1 (play 4 times)
-------------------------------------|
-------------------------------------|
-------------------------------------|
----9/10----9/10----9/10----9/10-99--|
-0007/8--0007/8--0007/8--0007/8----7-|
-------------------------------------|
 ...     ...     ...     ...       .

Riff 2 (play 4 times)
-----------------------------------------------------|
-----------------------------------------------------|
-----------------------------------------------------|
-------8------8------8-------------------------------|
-777777-777777-777777--0?-5?-3?-2?-0?----------------|
--------------------------------------0?-5?-3?-2?-0?-|
 ...... ...... ......

Riff 1 x 1
Riff 2 x 1

Riff 3 (maddest fuckin riff ever) (play 4 times)
-------------------------------------|
-------------------------------------|
-------------------------------------|
-------------------------------------|
-2/3\2-2/3\2-2/3\2-------2-2-2-2-2-2-|
-0/1\0-0/1\0-0/1\0-0/4-0-0-0-0-0-0-0-|
                         . . . . . .
Riff 4 (play twice)
-------------------------------------|
-------------------------------------|
----9/10----9/10----9/10----9/10-99--|
-0007/8--0007/8--0007/8--0007/8----7-|
-------------------------------------|
-------------------------------------|
 ...     ...     ...     ...       .

Riff 1 x 1
Riff 2 x 1
Riff 3 x 1
Riff 4 x 1

Riff 5a (play twice) (probably wrong)
-------------------------------------------|
-------------------------------------------|
-------------------------------------------|
-----------------------------------------8-|
-------------------------------------------|
-0-2-3-1-0-2-3-1-0-2-3-1-0-2-3-1-0-2-3-1---|
 . . . . . . . . . . . . . . . . . . . .

Riff 5b (play twice) (probably wrong)
-------------------------------------------|
-------------------------------------------|
-----------------------------------------6-|
-------------------------------------------|
-------------------------------------------|
-0-2-3-1-0-2-3-1-0-2-3-1-0-2-3-1-0-2-3-1---|
 . . . . . . . . . . . . . . . . . . . .

Under solo:
-----------------------------------------------------------|
-----------------------------------------------------------|
-----------------------------------------------------------|
--------------------------------------6----6----6----6-----|
-----------------------------------------------------------|
-0?2?3?5?0?2?3?5?0?2?3?5?0?2?3?5?--0?---0?---0?---0?---0?--|
 ................................  .......................

Riff 1 x 2
Riff 2 x 1

End:
-----------------|
-----------------|
-----------------|
-----------------|
------14\\\2-----|
-000--12\\\0-----|
 ...
Suggest correction
Give kudos to tab author, rate the tab!
1 2 3 4 5
comments
print report bad tab
guest
You may want to rate the tab now too:
select rating
Please do not post tabs as comments. Select "correction" instead!