Oops, an error
Loading. Please wait.

Sickening Metamorphosis Tab

version 1
version 1

Whole song

Interactive

1,216 views 7 this week
no commentswrite comment
1 2 3 4 5
please rate
add to favorites
launch autoscroll
font size
0
reset
how to read this tab
guitar tuner
Tab Pro tools
  • play this tab
  • loop segment
  • change instrument
  • show fretboard
  • metronome
×
Best way to learn
"Sickening Metamorphosis"
Autoscroll
slow
fast
+/-
esc
set tempo
stop
Difficulty
Tuning
advanced
A# F A# D# G C
Band:  Cannibal Corpse
Album: Bloodthirst
Song:  Sickening Metamorphosis
tabber: ben chaffins
Copyright (c) Metal Blade 1999
Version 1.0 – 2-12-11
.  - palm mute           /  - slide up to
\  - slide down to       ~  - vibrato
h  - hammer on           b  - Bend
p  - pull off            Suffixes for bend
t  - tap                 f  - full bend    h - half bend
ph - pinched harmonic    q  - quarter bend t - tap bend
*  - see comment         ^  - Hold bend    r release bend
x  - Stuccatto           ~  - vibrato bend
,  - slight palm mute    () - ghost note, sustained note
"  - tremolo note        <> - Trill

Tuning 6 half steps down: Bb-Eb-Ab-Db-F-Bb

Guitar one = left side
Guitar two = right side
                      guitar one 1 time
|-riff-A-------------------------------------------------------|
|--------------------------------------------------------------|
|-------------------------h------------------------------------|
|-------------1-----------3------------------------------------|
|-------------2---------------66664444----77777777-------------|
|-3h6p3---0---3---0---3-\-1-----------6666--------666633333333-|
          .       .
 ------------------------------------------------------------|
 ------------------------------------------------------------|
 -----------------------h------------------------------------|
 ----------ph-----------3------------------------------------|
 -33331111------------------33331111----44444444-------------|
 ----------4h---0---3-\-1-----------3333--------333300000000-|
                .
                      guitar two 1 time
|-riff-A-------------------------------------------------------|
|--------------------------------------------------------------|
|--------------------------------------------------------------|
|-------------1------------------------------------------------|
|-------------2---------------66664444----77777777444411111111-|
|-3h6p3---0---3---0---3-\-1-----------6666---------------------|
          .       .
 ------------------------------------------------------------|
 ------------------------------------------------------------|
 ------------------------------------------------------------|
 ----------ph------------------------------------------------|
 -33331111------------------33331111----44444444-------------|
 ----------4h---0---7-\-5-----------3333--------333300000000-|
                .
                           both guitars 1 time
|-riff-B-------------------------------------------------------------------|
|--------------------------------------------------------------------------|
|--------------------------------------------------------------------------|
|------------------------------6-8-6-------------2-----------4-----------2-|
|----------------------------7-------7-----------3-----------5-----------3-|
|-6h8p6-0-8h10p8-0-6h8p6-0-6-----------8-4h6p4-0-4---4h6p4-0-6---4h6p4-0-4-|
        .        .       . . .         .       .           .           .
 ----------------------------------------------------------------|
 ----------------------------------------------------------------|
 ----------------------------------------------------------------|
 --------4--------------------------------6-8-10-----------6-----|
 --------5------------------------------7--------9-------7---7---|
 4h6p4-0-6---6h8p6-0-8h10p8-0-6h8p6-0-6------------8-6-8-------8-|
       .           .        .       . . .          . . .       .

 --------------|
 --------------|
 --------------|
 -------------2|
 ---7---------3|
 -6---4h6p4-0-4|
  .         .
      both guitars 3 times
|-riff-C1-----------------------|
|-------------------------------|
|-------------------------------|
|-222222----------------------2-|
|-------333333----------------3-|
|-------------4444442-4h6p4-0-4-|
                            .
   guitar one 4 time
|-riff-C2--------------|
|----------------------|
|----------------------|
|-222222---------------|
|-------333333---------|
|-------------44444422-|

   guitar two 4 time
|----------------------|
|----------------------|
|-555555------------ --|
|-------666666---------|
|-------------777777---|
|-------------------22-|

         both guitars 1 time          ending one
|-riff-D1---------------------------|--4-times---|
|-----------------------------------|------------|
|-------------------77--------------|------------|
|-----------6644------66--4444------|-10—-8-/----|
|---------33----5555----55----------|---------9--|
|-00000000--------------------8800--|--8—-6-/-8--|

          guitar one 1 time                    ending two
|-riff-D2---------------------------|-----------4-times--------------|
|-----------------------------------|--------------------------------|
|-------------------77--------------|--------------------------------|
|-----------6644------66--4444------|-10—-8-/------------------------|
|---------33----5555----55----------|---------9------9-----7---------|
|-00000000--------------------8800--|--8—-6-/-8—-6-8---8-6---8-6-10--|
                                                 . .   . .   . .
           guitar two 1 time                       ending two
|---------------------------------------|-----------4-times--------------|
|---------------------------------------|--------------------------------|
|-------------------1111----------------|--------------------------------|
|-----------101088------1010—-8888------|-10—-8-/------------------------|
|---------77------99--------99----77----|---------9------9-----7---------|
|-00000000--------------------------00--|--8—-6-/-8—-6-8---8-6---8-6-10--|
                                                     . .   . .   . .
again riff B one time
again riff C1 three times
again riff C2 one time
again riff D1 one time
again riff D2 one time

                guitar one 2 times
|-riff-E------------------------------------------|
|-------------------------------------------------|
|-------------------------------------------------|
|-----6-4---------6-4-------6-4-----6-----------4-|
|---5-----5-----5-----5---5-------5-----5-----5---|
|-4---------6-4---------4-------4-----4---4-6-----|
  . .     . . . .     . . .     . .   .   . .
                  guitar two 1 time
|-------------------------------------------------------|
|-------------------------------------------------------|
|-------------------------------------------------------|
|-----10-8----------10-8-------10-8-----10------------8-|
|---9------9------9------9---9--------9------9------9---|
|-8----------10-8----------8--------8------8---8-10-----|
  . .      . .  . .      . . .      . .    .   . .
                         guitar two last time
|-------------------------------------------------------------------------|
|-------------------------------------------------------------------------|
|-------------------------------------------------------------------------|
|-------14-12-------------14-12----------14-12-------14----------------12-|
|----13-------13-------13-------13----13----------13-------13-------13----|
|-12-------------14-12-------------12----------12-------12----12-14-------|
  .  .        .  .  .  .        .  .  .        .  .     .     .  .
       both guitars 4 times
|-riff-F-------------------------|
|--------------------------------|
|--------------------------------|
|-----4-2------------------------|
|---3-----3--------ph------------|
|-2---------4-2/4--2--0—6h8p6-0--|
  . .
              both guitars 1 time
|-riff-G--------------------------------------------|
|---------------------------------------------------|
|---------------------------------------------------|
|-----4-----2-----4-----2-----5---------------------|
|---3-----1-----3-----1-----4-----------------------|
|-2-----0-----2-----0-----3-----0-6h9p6-5h8p5-4h7p4-|
  . .   . .   . .   . .   . .   .
 -riff-A-------------------------------------------------------|
 --------------------------------------------------------------|
 -------------------------h------------------------------------|
 -------------1-----------3------------------------------------|
 -------------2---------------66664444----77777777-------------|
 -3h6p3---0---3---0---3-\-1-----------6666--------666633333333-|
          .       .
 ------------------------------------------------------------|
 ------------------------------------------------------------|
 -----------------------h------------------------------------|
 ----------ph-----------3------------------------------------|
 -33331111------------------33331111----44444444-------------|
 ----------4h---0---3-\-1-----------3333--------333300000000-|
                .



                      guitar two 1 time
 -riff-A-------------------------------------------------------|
 --------------------------------------------------------------|
 --------------------------------------------------------------|
 -------------1------------------------------------------------|
 -------------2---------------66664444----77777777444411111111-|
 -3h6p3---0---3---0---3-\-1-----------6666---------------------|
          .       .
 ------------------------------------------------------------|
 ------------------------------------------------------------|
 ------------------------------------------------------------|
 ----------ph------------------------------------------------|
 -33331111------------------33331111----44444444-------------|
 ----------4h---0---7-\-5-----------3333--------333300000000-|

                    both guitars 1 time
|-riff-H---------------------------------------------------------|
|----------------------------------------------------------------|
|----------------------------------------------------------------|
|----------2-----2-----------------------------------------------|
|----------3-----3------------5-----7-----9-----7-----10-----7---|
|-3h6p3-0--4--0--4--0—3h6p3-0---0-5---0-7---0-5---0-8----0-5---0-|
        .     .     .       .   . .   . .   . .   . .    . .   .
      both guitars 1 time
 -----------------------------|
 -----------------------------|
 -----------------------------|
 -----------------------------|
 -----------------------------|
 -6h9p6-5h8p5-4h7p4-3h6p3--0--|
                           .
guitar one 7 times/8 time
   --------------|-------||
   --------------|-------||
   -----------h--|-------||
   -1---------3--|-1-----||
   -2------------|-2-----||
   -3--0--3-\-1--|-3--0--||
       .              .
guitar two 3 times/then 4 times/&last one
   --------------|--------------|-------||
   --------------|--------------|-------||
   --------------|--------------|-------||
   -1------------|-1------------|-1-----||
   -2------------|-2------------|-2-----||
   -3--0--3-\-1--|-3--0--7-\-5--|-3--0--||
       .              .              .
riff B one time under solo
riff C1 one time under solo
riff C2 one time under solo

       both guitars 3 times                 both guitars 4 time
|-riff-F------------------------|-----------------------------------------|
|-------------------------------|-----------------------------------------|
|-------------------------------|-----------------------------------------|
|-----4-2-----------------------|-----4-2--------------------------------2|
|---3-----3--------ph-----------|---3-----3--------ph--------------------3|
|-2---------4-2/4--2--0—6h8p6-0-|-2---------4-2/4—-2—-0-6h8p6-0--4h6p4-0-4|
  . .                             . .
riff C1 three times
riff C2 one time
riff D1 one time
riff D2 one time

guitar one 16 times
  |-------------||
  |-------------||
  |-------------||
  |-------------||
  |-4-----------||
  |---0-3-6-3-0-||
      . . . . .
guitar two 8 times/then 4 times/then 2 times/   & last 2 times
  |-------------|-------------|---------------|-----------------||
  |-------------|-------------|---------------|-----------------||
  |-------------|-------------|---------------|-----------------||
  |-------------|-------------|---------------|-----------------||
  |-4-----------|-7-----------|-10------------|-13--------------||
  |---0-3-6-3-0-|---0-6-9-6-0-|----0-9-12-9-0-|----0-12-15-12-0-||
      . . . . .     . . . . .      . . .  . .      . .  .  .  .
 last note
  |-----|
  |-----|
  |-----|
  |-----|
  |-4---|
  |-----|
comments
We did not receive enough feedback on this tab! Please rate:
print report bad tab
1 2 3 4 5
I want to post or [tab]
guest
You may want to rate the tab now too:
select rating
Please do not post tabs as comments. Select "correction" instead!